Song name
# A B C D E F G H I J K L M N O P Q R S T U V W X Y Z

30 Seconds To Mars - This Is War tab

Simply Amazing.  makes me want to strive to do more in life, and get out there and 
fight to be where I want in life.

Pretty easy song. I'll put like musical kinda milestones so you know where to play 
each part, and enjoy =]

Tuning - Drop D (DADGBE)

Intro

Clean Delay on the guitar or you can pick the delayed notes too.
E|----------------------------------------------------------------------|
B|----------------------------------------------------------------------|
G|----------------------------------------------------------------------|
D|------8-8-------6-6-------4-4--------6-6------------------------------|
A|--6-6-----------------2-2-------4-4-----------------------------------|
D|------------4-4-------------------------------------------------------|

every first and third bar it does this                                   X6
E|----------------------------------------------------------------------|
B|----------------------------------------------------------------------|
G|------------------------------------8-8-8-8-8-------------------------|
D|------8-8-------6-6-------4-4-----------------------------------------|
A|--6-6-----------------2-2---------------------------------------------|
D|------------4-4----------------6-6------------------------------------|

Little Violin Bit Backing (Its fun to do the small fun parts lol)

E|-----------------------------|
B|-----------7--9---------7--9-|
G|----8--10--------8--10-------| ringing notes
D|-----------------------------|
A|-----------------------------|
D|-----------------------------|

Pre-Chorus (is violin but transposed to guitar.)
Sorry i can't pick the guitar there =[

E|----------------------------------------------------------------------|
B|----------------------------------------------------------------------|
G|----8------10-----11----13--------------------------------------------|X2
D|----X-X8---X--X8--X--X8-X--X8-----------------------------------------|
A|----6------8------9----11---------------------------------------------|
D|----------------------------------------------------------------------|

Chorus

E|------------------------------------------------|
B|----------14-14-14-14-14----------14-14-14-14-14|
G|-11-11-11----------------11-11-11---------------|
D|------------------------------------------------|
A|------------------------------------------------|
D|------------------------------------------------|
                               
E|------------------------------------------------|
B|----------14-14-14-14-14----------14-14-14-14-14|
G|-10-10-10----------------10-10-10---------------|
D|------------------------------------------------|
A|------------------------------------------------|
D|------------------------------------------------|
                                                      X2
E|------------------------------------------------|
B|----------14-14-14-14-14----------14-14-14-14-14|
G|------------------------------------------------|
D|-13-13-13----------------13-13-13---------------|
A|------------------------------------------------|
D|------------------------------------------------|

E|------------------------------------------------|
B|----------14-14-14-14-14----------14-14-14-14-14|
G|------------------------------------------------|
D|-11-11-11----------------11-11-11---------------|
A|------------------------------------------------|
D|------------------------------------------------|

Little Violin Bit After Chorus
E|-------------------------|
B|-------------------------|
G|-------------------------|
D|---------------------6---|
A|---6--9--6--9--6--9------|
D|-------------------------|

*Verse*

Delay on the guitar or you can pick the delayed notes too.
E|----------------------------------------------------------------------|
B|----------------------------------------------------------------------|
G|----------------------------------------------------------------------|X6
D|------8-8-------6-6-------4-4--------6-6------------------------------|
A|--6-6-----------------2-2-------4-4-----------------------------------|
D|------------4-4-------------------------------------------------------|

Occasionally does this
E|----------------------------------------------------------------------|
B|----------------------------------------------------------------------|
G|------------------------------------8-8-8-8-8-------------------------|
D|------8-8-------6-6-------4-4-----------------------------------------|
A|--6-6-----------------2-2-------4-4-----------------------------------|
D|------------4-4-------------------------------------------------------|

Little Violin Bit Backing

E|-----------------------------|
B|-----------7--9---------7--9-|
G|----8--10--------8--10-------| ringing notes
D|-----------------------------|
A|-----------------------------|
D|-----------------------------|

Pre-Chorus

E|----------------------------------------------------------------------|
B|----------------------------------------------------------------------|
G|----8------10-----11----13--------------------------------------------|X2
D|----X-X8---X--X8--X--X8-X--X8-----------------------------------------|
A|----6------8------9-----11--------------------------------------------|
D|----------------------------------------------------------------------|

Chorus

E|------------------------------------------------|
B|----------14-14-14-14-14----------14-14-14-14-14|
G|-11-11-11----------------11-11-11---------------|
D|------------------------------------------------|
A|------------------------------------------------|
D|------------------------------------------------|
                               
E|------------------------------------------------|
B|----------14-14-14-14-14----------14-14-14-14-14|
G|-10-10-10----------------10-10-10---------------|
D|------------------------------------------------|
A|------------------------------------------------|
D|------------------------------------------------|
                                                      X2
E|------------------------------------------------|
B|----------14-14-14-14-14----------14-14-14-14-14|
G|------------------------------------------------|
D|-13-13-13----------------13-13-13---------------|
A|------------------------------------------------|
D|------------------------------------------------|

E|------------------------------------------------|
B|----------14-14-14-14-14----------14-14-14-14-14|
G|------------------------------------------------|
D|-11-11-11----------------11-11-11---------------|
A|------------------------------------------------|
D|------------------------------------------------|

Bridge

E|-------------------------|
B|-------------------------|
G|-------------------------| Let Ring for a short while
D|--4----------------------|
A|--4----------------------|
D|--4----------------------|

Chorus

E|------------------------------------------------|
B|----------14-14-14-14-14----------14-14-14-14-14|
G|-11-11-11----------------11-11-11---------------|
D|------------------------------------------------|
A|------------------------------------------------|
D|------------------------------------------------|
                               
E|------------------------------------------------|
B|----------14-14-14-14-14----------14-14-14-14-14|
G|-10-10-10----------------10-10-10---------------|
D|------------------------------------------------|
A|------------------------------------------------|
D|------------------------------------------------|
                                                      X2
E|------------------------------------------------|
B|----------14-14-14-14-14----------14-14-14-14-14|
G|------------------------------------------------|
D|-13-13-13----------------13-13-13---------------|
A|------------------------------------------------|
D|------------------------------------------------|

E|------------------------------------------------|
B|----------14-14-14-14-14----------14-14-14-14-14|
G|------------------------------------------------|
D|-11-11-11----------------11-11-11---------------|
A|------------------------------------------------|
D|------------------------------------------------|

*Outro*

Chorus

E|------------------------------------------------|
B|----------14-14-14-14-14----------14-14-14-14-14|
G|-11-11-11----------------11-11-11---------------|
D|------------------------------------------------|
A|------------------------------------------------|
D|------------------------------------------------|
                               
E|------------------------------------------------|
B|----------14-14-14-14-14----------14-14-14-14-14|
G|-10-10-10----------------10-10-10---------------|
D|------------------------------------------------|
A|------------------------------------------------|
D|------------------------------------------------|
                                                      X2
E|------------------------------------------------|
B|----------14-14-14-14-14----------14-14-14-14-14|
G|------------------------------------------------|
D|-13-13-13----------------13-13-13---------------|
A|------------------------------------------------|
D|------------------------------------------------|

E|------------------------------------------------|
B|----------14-14-14-14-14----------14-14-14-14-14|
G|------------------------------------------------|
D|-11-11-11----------------11-11-11---------------|
A|------------------------------------------------|
D|------------------------------------------------|

Outro

Leads Up With This
E|-------------------------------------------------------------------------|
B|-11-11-11-11-11-11-11-11-12-12-12-12-12-12-12-12-14-14-14-14-14-14-14-14-|
G|-------------------------------------------------------------------------|
D|-------------------------------------------------------------------------|
A|-------------------------------------------------------------------------|
D|-------------------------------------------------------------------------|


E|------------------------------------------------|
B|-------11---14---12---12-11---14-11---11--------|
G|-10s11---11---11---11------11------11----11-----| X4
D|------------------------------------------------|
A|------------------------------------------------|
D|------------------------------------------------|

                            Then Ring Out On the 14

E|--------------------------14-----|
B|-11-12-14-11-12-14-11-12---------|
G|---------------------------------|
D|---------------------------------|
A|---------------------------------|
D|---------------------------------|
Tap to rate this tab
 
# A B C D E F G H I J K L M N O P Q R S T U V W X Y Z