Song name
# A B C D E F G H I J K L M N O P Q R S T U V W X Y Z

311 - Trouble tab

311 - "Trouble"
From the Album "Universal Pulse"
Standard Tuning
Tabbed by jjhand

Intro - Rhythm Guitar
e|---------------------------|----------------------------|
B|---------------------------|----------------------------|
G|---------------------------|----------------------------|
D|---------------------------|----------------------------|
A|---------------------------|-0----0----1-2-2-2-2--------|
E|-0----0----2-3-3-3-3-3-3-3-|---------------------0-3b---|



Lead Guitar, played 2x during Intro

e|-10b12r10----------------------------|----------------------------------|
B|-------------11-12-12-12-12-12-12-12-|-12h13----------------------------|
G|-------------------------------------|----------14b16r14b16r14b16r14-12-|
D|-------------------------------------|----------------------------------|
A|-------------------------------------|----------------------------------|
E|-------------------------------------|----------------------------------|

End of Lead guitar
e|---------------------|
B|---------------------|
G|-11------------------|
D|--------12~~\--------|
A|---------------------|
E|---------------------|






Reggae Verse Riff - play 4x

e|-----------------------|-----------------------|
B|----7----7----7----7-5-|----5----5----5----5-5-|
G|----7----7----7----7-5-|----5----5----5----5-5-|
D|----7----7----7----7-5-|----5----5----5----5-5-|
A|----5----5----5----5---|----7----7----7----7---|
E|-----------------------|----5----5----5----5---|




Chorus- 

One Guitar may add in muted string strums (16ths rhythm) in between chords

e|----3----3----3----3-3-|----5----5----5----5-5-|
B|----3----3----3----3-3-|----5----5----5----5-5-|
G|----4----4----4----4-4-|----5----5----5----5-5-|
D|----5----5----5----5---|----7----7----7----7---|
A|----5----5----5----5---|----7----7----7----7---|
E|----3----3----3----3---|----5----5----5----5---|

"I was always looking for trouble, 
                   trouble would always follow me..."
                       



Play Reggae Verse Riff & Chorus Again





End of 2nd Chorus - Lead Guitar Lick

e|-------------5----------|
B|-----5--8b10--------5---|
G|-7b9------------7---5h6-|
D|------------------------|
A|------------------------|
E|------------------------|


Bridge

   play 2x
e|-5----5----5----5----|-7----7----7----7----|
B|-5----5----5----5----|-7----7----7----7----|
G|-6----6----6----6----|-7----7----7----7----|
D|-7----7----7----7----|-9----9----9----9----|
A|-7----7----7----7----|-9----9----9----9----|
E|-5----5----5----5----|-7----7----7----7----|
 |
 | Lead
e|---------------------|---------------------|
B|---------------------|---------------------|
G|---------------------|---------------------|
D|---------------------|---------------------|
A|-4----4----4----4----|-5----5----5----5----|
E|---5----5----5----5--|---7----7----7----7--|

            "Point of contention, they will both motivate..."


Bridge Ending
   Em           Am   Bm   C    Bm
e|-0----------|-0--------------2----|-0----------|--------8------|
B|-0----------|-1----3----5----3----|-0----------|-3------7------|
G|-0----------|-2----4----5----4----|-0----------|-2------7------|
D|-2----------|-2----4----5----4----|-2----------|-0-------------|
A|-2----------|-0-------------------|-2----------|---------------|
E|-0----------|---------------------|-0----------|---------------|
  "Its been said before, I'll say it again you only get one spin, oh"




Play the Chorus Again & end on Em chord



KEY
************************************

| /   slide up
| \   slide down
| h   hammer-on
| p   pull-off
| ~   vibrato
| x   Mute note
| b   Bend
| r  Bend release

************************************
Tap to rate this tab
# A B C D E F G H I J K L M N O P Q R S T U V W X Y Z