Song name
# A B C D E F G H I J K L M N O P Q R S T U V W X Y Z

311 - Dont Stay Home tab

'Don't Stay Home'
Performed by 311
From the album "311" on Capricorn Records
Tabbed by: Christian passen email me for any corrections, cpassen@bellsouth.net thanks 
bless and keep rocking!


Riff 1 (w/Distortion):
======================
   G                Bm             G                Bm
1:----------------------------------------------------------------|
2:------------------3-3-3-3-3-3-3-------------------3-3-3-3-3-3-3-|
3:-4-4-4-4-4-4-4-4--4-4-4-4-4-4-4--4-4-4-4-4-4-4-4--4-4-4-4-4-4-4-|
4:-5-5-5-5-5-5-5-5--4-4-4-4-4-4-4--5-5-5-5-5-5-5-5--4-4-4-4-4-4-4-|
5:-5-5-5-5-5-5-5-5--2-2-2-2-2-2-2--5-5-5-5-5-5-5-5--2-2-2-2-2-2-2-|
6:-3-3-3-3-3-3-3-3-----------------3-3-3-3-3-3-3-3----------------|

   G                Bm             G                E
1:----------------------------------------------------|
2:------------------3-3-3-3-3-3-3---------------------|
3:-4-4-4-4-4-4-4-4--4-4-4-4-4-4-4--4-4-4-4-4-4-4-4--1-|
4:-5-5-5-5-5-5-5-5--4-4-4-4-4-4-4--5-5-5-5-5-5-5-5--2-|
5:-5-5-5-5-5-5-5-5--2-2-2-2-2-2-2--5-5-5-5-5-5-5-5--2-|
6:-3-3-3-3-3-3-3-3-----------------3-3-3-3-3-3-3-3--0-|

Harmonics added by otehr guitar(s).

Chorus (w/Distortion):
======================
   E5  E  E5  E  A5  A  A5  A  B5  B  B5  B  A5  A  A5  A
1:--------------------------------------------------------|
2:-------------------2------2------4------4------2------2-|
3:-----1------1------2------2------4------4------2------2-|
4:-----2------2--2-2-2--2-2-2--4-4-4--4-4-4--2-2-2--2-2-2-|
5:-2-2-2--2-2-2--0-0-0--0-0-0--2-2-2--2-2-2--0-0-0--0-0-0-|
6:-0-0-0--0-0-0-------------------------------------------|

   E5  E  E5  E  A5  A  A5  A  B5  B  B5  B  A5  A  A5  A
1:--------------------------------------------------------|
2:-------------------2------2------4------4------2------2-|
3:-----1------1------2------2------4------4------2------2-|
4:-----2------2--2-2-2--2-2-2--4-4-4--4-4-4--2-2-2--2-2-2-|
5:-2-2-2--2-2-2--0-0-0--0-0-0--2-2-2--2-2-2--0-0-0--0-0-0-|
6:-0-0-0--0-0-0-------------------------------------------|

   E5  E  E5  E  A5  A  A5  A  B5  B  B5  B  A5  A  A5  A
1:--------------------------------------------------------|
2:-------------------2------2------4------4------2------2-|
3:-----1------1------2------2------4------4------2------2-|
4:-----2------2--2-2-2--2-2-2--4-4-4--4-4-4--2-2-2--2-2-2-|
5:-2-2-2--2-2-2--0-0-0--0-0-0--2-2-2--2-2-2--0-0-0--0-0-0-|
6:-0-0-0--0-0-0-------------------------------------------|

   E5  E  E5  E  A5  A  A5  A  B5  B  B5  B  B5  B  B5  B
1:--------------------------------------------------------|
2:-------------------2------2------4------4------4------4-|
3:-----1------1------2------2------4------4------4------4-|
4:-----2------2--2-2-2--2-2-2--4-4-4--4-4-4--4-4-4--4-4-4-|
5:-2-2-2--2-2-2--0-0-0--0-0-0--2-2-2--2-2-2--2-2-4--2-2-2-|
6:-0-0-0--0-0-0-------------------------------------------|

Bridge A (w/Distortion):
========================
   E5
1:------------------|
2:------------------|
3:------------------|
4:-2----2----2----2-|
5:-2----2----2----2-|
6:-0----0----0----0-|

Bridge B (w/Distortion):
========================
   N.C.
1:-------------------------|
2:-------------------------|
3:-------------------------|
4:---------------------1-2-|
5:---2-0---2-1-0-2-4-2-----|
6:-0-----4-----------------|
Tap to rate this tab
 
# A B C D E F G H I J K L M N O P Q R S T U V W X Y Z