Song name
# A B C D E F G H I J K L M N O P Q R S T U V W X Y Z

311 - Speak Easy tab

Band: 311
Song: Speak Easy
Album: Don't Tread On Me (2005)
Music By: Chad Sexton
Lyrics By: Nick Hexum, SA Martinez
Tabbed By: Steven Lysomirski
Tabbed: 7:51 PM November 8th 2008
Email: steveo3242391@yahoo.com

-Look out for how many dashes I put in between the numbers. That lets you know the 
of it.

-Watch the time lengths as well. I count the time by the last strum.

-Look for my ==== breaks, showing a switch from piece to piece.

~ = Fade Out


Intro/Riff 1: (0:00-0:47)
e-------------------------------------|
B-------------------------------------|
G----------------------------------0~-|
D--4~-----------0~------------0~------|
A--5~------2~----------4~-----2~------|
E----------3~----------5~-------------|x7


================================================================================================


Chords/Riff 2: (0:48-1:15)
e--10---7---9----7-|
B--10---8---10---8-|
G--11---9---11---9-|
D--12---9---11---9-|
A--12---7---9----7-|
E--10---7---9----7-|x4


================================================================================================


Riff 3: (1:16-1:37)
e--------------------------------------------------------------------------------------------|
B--13-----13-12---12-12-13-12-13-12--------------13----12---------12-12-13-12-13-12----------|
G------12----------------------------10-9-10-9-10----12----12-9-12-------------------10-9-10-|
D--------------------------------------------------------------------------------------------|
A--------------------------------------------------------------------------------------------|
E--------------------------------------------------------------------------------------------|

e------------------------------------------------------------------------------------------|
B--13---13-------10--10--------------------------------------10--10------------------------|
G----------9---9--------12--12-10--10-11-12-10---------9---9--------12--12-10--10-11-12-10-|
D----------------------------------------------10---10-------------------------------------|
A------------------------------------------------------------------------------------------|
E------------------------------------------------------------------------------------------|


================================================================================================


Riff 4: (1:38-1:59)
e----------------------------------12--10-----------------|
B-----12----------12---------10-13--------12-----13-10-10-|
G--12----12-9--12----12-12-------------------12-----------|
D---------------------------------------------------------|
A---------------------------------------------------------|
E---------------------------------------------------------|

e----------------------------------12--10--------10--------|
B-----12----------12---------10-13--------12---------13-13-|
G--12----12-9--12----12-12-------------------12------------|
D----------------------------------------------------------|
A----------------------------------------------------------|
E----------------------------------------------------------|


================================================================================================


Riff 5: (2:00-2:20)
e-------------------------------------|
B-------------------------------------|
G----------------------------------0~-|
D--4~-----------0~------------0~------|
A--5~------2~----------4~-----2~------|
E----------3~----------5~-------------|x3


================================================================================================

Chords/Riff 6 : (2:21-2:34)
e--10---7---9----7-|
B--10---8---10---8-|
G--11---9---11---9-|
D--12---9---11---9-|
A--12---7---9----7-|
E--10---7---9----7-|x2


================================================================================================


Riff 7: (2:34-2:55)
e--------------------------------------------------------------------------------------------|
B--13------13-12---12-12-13-12-13-12--------------13----12---------12-12-13-12-13-12---------|
G------12----------------------------10-9-10-9-10----12----12-9-12-------------------10-9-10-|
D--------------------------------------------------------------------------------------------|
A--------------------------------------------------------------------------------------------|
E--------------------------------------------------------------------------------------------|

e------------------------------------------------------------------------------------------|
B--13---13-------10--10--------------------------------------10--10------------------------|
G----------9---9--------12--12-10--10-11-12-10---------9---9--------12--12-10--10-11-12-10-|
D----------------------------------------------10---10-------------------------------------|
A------------------------------------------------------------------------------------------|
E------------------------------------------------------------------------------------------|


================================================================================================


Riff 8: (2:56-3:18)
e----------------------------------12--10-----------------|
B-----12----------12---------10-13--------12-----13-10-10-|
G--12----12-9--12----12-12-------------------12-----------|
D---------------------------------------------------------|
A---------------------------------------------------------|
E---------------------------------------------------------|

e----------------------------------12--10--------10--------|
B-----12----------12---------10-13--------12---------13-13-|
G--12----12-9--12----12-12-------------------12------------|
D----------------------------------------------------------|
A----------------------------------------------------------|
E----------------------------------------------------------|


================================================================================================


End/Riff 9: (3:18-3:26/End)
e-----
B-----
G-----
D--4~-
A--5~-
E-----


================================================================================================


Lyrics:

If there's a scream inside of you just let it go,
You're beating yourself up baby don't you know,
You've got to get through,
And lift the roof off your soul.

It's like a pain locked in a part of your heart,
It's never gonna leave it,
Unless you start to warm it up,
Be wise and be smart.

Out on the ocean,
There's no one around,
No one to hear a sound it's just us out here,
Out on the ocean,
Speaking freely.

Away from the city,
Away from the ears that,
Bug us and judge us it's so liberating,
To be free,
And my heart slows down.

Nice and easy,
And your breathing will be pleasing,
Just speak easy,
And say what's on your mind,
I search for something to compare you to,
Thought long and hard for a simile true,
Now I'm suddenly aware,
End the quest you're beyond compare,
So speak easy.

If there's a shadow in your life then there's sunshine,
Things turning inside out,
All the time,
Just rewind,
It's all in your mind.

Ooh so speak easy,
Out here we're floating,
Late in the night,
And the only light to guide us is a,
Full moon that's glowing,
On the sea.

Nice and easy,
And your breathing will be pleasing,
Just speak easy,
And say what's on your mind,
I search for something to compare you to,
Thought long and hard for a simile true,
Now I'm suddenly aware,
End the quest you're beyond compare,
So speak easy.

Speak easy,
Speak easy,
Speak easy.
Tap to rate this tab
# A B C D E F G H I J K L M N O P Q R S T U V W X Y Z