Song name
# A B C D E F G H I J K L M N O P Q R S T U V W X Y Z

36 Crazyfists - Ill Go Until My Heart Stops tab

Help us improve GuitareTab! Take a short survey!
36 Crazyfists
I'll Go Until My Heart Stops
Rest Inside The Flames

Tuning: C G C F A D

Intro x2
|----------------------------------------|
|----------------------------------------|
|----------------------------------------|
|----------------------------------------|
|-444-55-444-55-44-54-666-77-666-77-77-9-|
|-444----444----44----666----666----77---|

Verse1
Gtr1 (light distortion)
|----------------------------------|
|----------------------------------|
|-11111111111111111111111111111111-|
|--x-x-x-x-x-x-x-x-x-x-x-x-x-x-x-x-|
|--9-9-9-9-9-9-9-9-9-9-9-9-9-9-9-9-|
|----------------------------------|x2

|---------------------------------------------------|
|-7777777777777777----------------------------------|
|-9999999999999999/11111111111111111111111111111111-|
|-xxxxxxxxxxxxxxxx/-x-x-x-x-x-x-x-x-x-x-x-x-x-x-x-x-|
|-7777777777777777/-9-9-9-9-9-9-9-9-9-9-9-9-9-9-9-9-|
|---------------------------------------------------|

Gtr2 (light distortion)
|-------------------------------------|
|-------------------------------------|
|-------------------------------------|
|-------------------------------------|
|-44446677-44646677-44446677-44646677-|
|-44446677-44646677-44446677-44646677-|x2

Verse pt2
Gtr1 (heavy distortion)
|---------------------------------------------------------------|
|---------------------------------------------------------------|
|-11111111111111111111111111\999/13131313131313131313131313\999-|
|--x-x-x-x-x-x-x-x-x-x-x-x-x\xxx/-x-x-x-x-x-x-x-x-x-x-x-x-x\xxx-|
|--9-9-9-9-9-9-9-9-9-9-9-9-9\777/11111111111111111111111111\777-|
|---------------------------------------------------------------|

|------------------------------------------------------------------|
|------------------------------------------------------------------|
|-11111111111111111111111111\999/131313131313131313/16161616161616-|
|--x-x-x-x-x-x-x-x-x-x-x-x-x\xxx/-x-x-x-x-x-x-x-x-x/-x-x-x-x-x-x-x-|
|--9-9-9-9-9-9-9-9-9-9-9-9-9\777/111111111111111111/14141414141414-|
|------------------------------------------------------------------|

Gtr2 (light distortion)
|-------------------------------------|
|-------------------------------------|
|-------------------------------------|
|-------------------------------------|
|-44446677-44646677-44446677-44646677-|
|-44446677-44646677-44446677-44646677-|x2

Pre-Chorus
|--------------------------------------------------------|
|--------------------------------------------------------|
|--------------------------------------------------------|
|-111111-777-111111-777-1111-77-111111-777-111111-777-11-|
|-111111-777-111111-777-1111-77-111111-777-111111-777-11-|
|-111111-777-111111-777-1111-77-111111-777-111111-777-11-|

|----------------------------------------|
|----------------------------------------|
|----------------------------------------|
|----------------------------------------|
|-444-55-444-55-44-54-666-77-666-77-77-9-|
|-444----444----44----666----666----77---|

|----------------------------------------|
|----------------------------------------|
|----------------------------------------|
|----------------------------------------|
|-444-55-444-55-44-54-666666666/7777/999-|
|-444----444----44----666666666/7777/999-|

Chorus
Gtr1
|-------------------------------------------------------------|
|-------------------------------------------------------------|
|-------------------------------------------------------------|
|-1111111111111111-1414141212121111-1111111111111111-14141412-|
|-1111111111111111-1111111111111111-1111111111111111-11111111-|
|-1111111111111111-1111111111111111-1111111111111111-11111111-|

|-------------------------------------|
|-------------------------------------|
|-------------------------------------|
|-99999999-77777777-66666666-22222222-|
|-77777777-77777777-44444444-22222222-|
|-77777777-77777777-44444444-22222222-|

Gtr2
|--------------------------------------------------------------------|
|--------------------------------------------------------------------|
|-66666666666666666666666666666666-----------------------------------|
|-xxxxxxxxxxxxxxxxxxxxxxxxxxxxxxxx-9999999977776666-9999999977776666-|
|-44444444444444444444444444444444-7777777777777777-7777777777777777-|
|--------------------------------------------------------------------|

Gtr1
|-------------------------------------------------------|
|-------------------------------------------------------|
|-------------------------------------------------------|
|-111111-111111-12121211-1111-111111-111111-12121211-6~-|
|-111111-111111-11111111-1111-111111-111111-11111111-4~-|
|-111111-111111-11111111-1111-111111-111111-11111111-4~-|

|-------------------------------------|
|-------------------------------------|
|-------------------------------------|
|-99999999-77777777-66666666-22222222-|
|-77777777-77777777-44444444-22222222-|
|-77777777-77777777-44444444-22222222-|

Gtr2
|--------------------------------------------------------------------|
|--------------------------------------------------------------------|
|-666-666-7776-66-666-666-7776-6~------------------------------------|
|-xxx-xxx-xxxx-xx-xxx-xxx-xxxx-x~--9999999977776666-9999999977776666-|
|-444-444-4444-44-444-444-4444-4~--7777777777777777-7777777777777777-|
|--------------------------------------------------------------------|

Verse 2 - repeat

Pre-Chorus
|--------------------------------------------------------|
|--------------------------------------------------------|
|--------------------------------------------------------|
|-111111-777-111111-777-1111-77-111111-777-111111-777-11-|
|-111111-777-111111-777-1111-77-111111-777-111111-777-11-|
|-111111-777-111111-777-1111-77-111111-777-111111-777-11-|

|----------------------------------------|
|----------------------------------------|
|----------------------------------------|
|----------------------------------------|
|-444-55-444-55-44-54-666-77-666-77-77-9-|
|-444----444----44----666----666----77---|

|--------------------------------------|
|--------------------------------------|
|--------------------------------------|
|--------------------------------------|
|-4444--4444--44--4/666666666/7777/999-|
|-4444--4444--44--4/666666666/7777/999-|

Chorus
Gtr1
|-------------------------------------------------------------|
|-------------------------------------------------------------|
|-------------------------------------------------------------|
|-1111111111111111-1414141212121111-1111111111111111-14141412-|
|-1111111111111111-1111111111111111-1111111111111111-11111111-|
|-1111111111111111-1111111111111111-1111111111111111-11111111-|

|-------------------------------------|
|-------------------------------------|
|-------------------------------------|
|-99999999-77777777-66666666-22222222-|
|-77777777-77777777-44444444-22222222-|
|-77777777-77777777-44444444-22222222-|

Gtr2
|--------------------------------------------------------------------|
|--------------------------------------------------------------------|
|-66666666666666666666666666666666-----------------------------------|
|-xxxxxxxxxxxxxxxxxxxxxxxxxxxxxxxx-9999999977776666-9999999977776666-|
|-44444444444444444444444444444444-7777777777777777-7777777777777777-|
|--------------------------------------------------------------------|

Gtr1
|-------------------------------------------------------|
|-------------------------------------------------------|
|-------------------------------------------------------|
|-111111-111111-12121211-1111-111111-111111-12121211-6~-|
|-111111-111111-11111111-1111-111111-111111-11111111-4~-|
|-111111-111111-11111111-1111-111111-111111-11111111-4~-|

|-------------------------------------|
|-------------------------------------|
|-------------------------------------|
|-99999999-77777777-66666666-22222222-|
|-77777777-77777777-44444444-22222222-|
|-77777777-77777777-44444444-22222222-|

Gtr2
|--------------------------------------------------------------------|
|--------------------------------------------------------------------|
|-666-666-7776-66-666-666-7776-6~------------------------------------|
|-xxx-xxx-xxxx-xx-xxx-xxx-xxxx-x~--9999999977776666-9999999977776666-|
|-444-444-4444-44-444-444-4444-4~--7777777777777777-7777777777777777-|
|--------------------------------------------------------------------|

|-------------------|
|-------------------|
|-------------------|
|-0~---0~---0~---0--|
|-0~---0~---0~---0--|
|-0~---0~---0~---0--|

Breakdown
|-----------------------------------------|
|-----------------------------------------|
|-----------------------------------------|
|-0000-0000-0000-0000-0000-0000-0000-0000-|
|-0000-0000-0000-0000-0000-0000-0000-0000-|
|-0000-0000-0000-0000-0000-0000-0000-0000-|x4
  .... .... .... .... .... .... .... ....

|---------------------------------------------------------------
|---------------------------------------------------------------
|-13//----------------\13//----------------\13//----------------
|--x//-0000-0000-0000-\-x//-0000-0000-0000-\-x//-0000-0000-0000-
|-11//-0000-0000-0000-\11//-0000-0000-0000-\11//-0000-0000-0000-
|------0000-0000-0000-------0000-0000-0000-------0000-0000-0000-

|----------------------|
|----------------------|
|-\13//----------------|
|-\-x//-0000-0007-0009-|
|-\11//-0000-0007-0009-|
|-------0000-0007-0009-|

Chorus
|-------------------------------------------------------------------|
|-------------------------------------------------------------------|
|-------------------------------------------------------------------|
|-11111111111111111414141212121111-11111111111111111414141414141414-|
|-11111111111111111111111111111111-11111111111111111111111111111111-|
|-------------------------------------------------------------------|

|-------------------------------------|
|-------------------------------------|
|-------------------------------------|
|-99999999-77777777-66666666-22222222-|
|-77777777-77777777-44444444-22222222-|
|-77777777-77777777-44444444-22222222-|

Gtr2
|-----------------------------------|
|-----------------------------------|
|-----------------------------------|
|-9999999977776666-9999999977776666-|
|-7777777777777777-7777777777777777-|
|-----------------------------------|

Gtr1
|-------------------------------------------------------|
|-------------------------------------------------------|
|-------------------------------------------------------|
|-111111-111111-12121211-1111-111111-111111-12121211-6~-|
|-111111-111111-11111111-1111-111111-111111-11111111-4~-|
|-111111-111111-11111111-1111-111111-111111-11111111-4~-|

|-------------------------------------|
|-------------------------------------|
|-------------------------------------|
|-99999999-77777777-66666666-22222222-|
|-77777777-77777777-44444444-22222222-|
|-77777777-77777777-44444444-22222222-|

Gtr2
|--------------------------------------------------------------------|
|--------------------------------------------------------------------|
|-666-666-7776-66-666-666-7776-6~------------------------------------|
|-xxx-xxx-xxxx-xx-xxx-xxx-xxxx-x~--9999999977776666-9999999977776666-|
|-444-444-4444-44-444-444-4444-4~--7777777777777777-7777777777777777-|
|--------------------------------------------------------------------|

Interlude x2
|-------------------------------------------------------------------|
|-------------------------------------------------------------------|
|-------------------------------------------------------------------|
|-1111111111111111-----------------1111111111111111-----------------|
|-11111111111111111414141212121111-11111111111111111414141212121111-|
|-11111111111111111414141212121111-11111111111111111414141212121111-|

|---------------------------------|
|---------------------------------|
|---------------------------------|
|-7-7-7-7-7-7-7-7-4-4-4-4-2-2-2-2-|
|-7-7-7-7-7-7-7-7-4-4-4-4-2-2-2-2-|
|-7-7-7-7-7-7-7-7-4-4-4-4-2-2-2-2-|

|----------------------------------|
|----------------------------------|
|-66666666666666666666666666666666-|
|-xxxxxxxxxxxxxxxxxxxxxxxxxxxxxxxx-|
|-44444444444444444444444444444444-|
|----------------------------------|

Outro x2
|-------------------------------------------------|
|-------------------------------------------------|
|-------------------------------------------------|
|-11-11-11-11-14-14-12-11-11-11-11-11-14-14-12-11-|
|-11-11-11-11-11-11-11-11-11-11-11-11-11-11-11-11-|
|-11-11-11-11-11-11-11-11-11-11-11-11-11-11-11-11-|

|------------------------------------------------|
|------------------------------------------------|
|------------------------------------------------|
|-------------9--9--7-----------------9--9--7----|
|-------------7--7--7-11--------------7--7--7-11-|
|-2b(4)r------7--7--7--7--2b(4)r------7--7--7--7-|

|-----|
|-----|
|-----|
|-14~-|
|-11~-|
|-11~-|

----------------------------------------------------------------------------
Lyrics

Between the seasons we find room.

And I like the way your lips turned legendary,
And I like the way the sun will come to light.

But it won't be long until it's your very last goodbye.
Decide to make it hard to find, but make it.

And if you decide that you,
need a thousand heartaches, a thousand heartaches.
And into this hotel room,
was the greatest mistake, the greatest mistake.

And I want this all to be just necessary.
So when the darkness comes we won't need the light.

But it won't be long until it's your very last goodbye.
Decide to make it.
Between the seasons we find room.

And if you decide that you,
need a thousand heartaches, a thousand heartaches.
And into this hotel room,
was the greatest mistake, the greatest mistake.

This is as real as it gets with weapons in hand.
We opt to not lay down our guns.

And if you decide that you,
need a thousand heartaches, a thousand heartaches.
And into this hotel room,
was the greatest mistake, the greatest mistake.

Between the seasons we find room to breathe out.
Between the seasons we find room to breathe out.

And if you decide that you,
And if you decide that you,
And if you decide that you,
And if you decide.

\m/
Related for Ill Go Until My Heart Stops tab