Song name
# A B C D E F G H I J K L M N O P Q R S T U V W X Y Z

36 Crazyfists - Destroy The Map tab

This is a at least 99% right version of the song...but it's better than all the others 
find...I worked it out in over a month time by playing it as written in other tabs and 
to the record

Part 1 (Intro)
|09-09-09-09-09--09-09-09-09-09--09-09-09--12-12-12-12-12--14-14-14-14-14--12-12-12|
|10-10-10-10-10--10-10-10-10-10--10-10-10--10-10-10-10-10--10-10-10-10-10--10-10-10|
|11-11-11-11-11--11-11-11-11-11--11-11-11--11-11-11-11-11--11-11-11-11-11--11-11-11|
|----------------------------------------------------------------------------------|x2
|----------------------------------------------------------------------------------|
|----------------------------------------------------------------------------------|

Part 2 (Intro)
|09~--12~-14~-12~|
|10~--10~-10~-10~|
|11~--11~-11~-11~|
|----------------|x2
|----------------|
|----------------|

Part 3 (Verse)                  Part 4 (Verse)
|----------------------------|  |-----------------------------|
|----------------------------|  |-----------------------------|
|----------------09----09/11-|  |---------------09----11----12|
|---07-11--00-07----07-------|x2|11-07----07-11----07----07---|
|09--------------------------|  |------09---------------------|
|----------------------------|  |-----------------------------|

Part 5 (Verse)
|-----------------------------------------------|
|-----------------------------------------------|
|11-11-11-11-11-11-11-11-11-11-11-11-13-13-14-14|
|-----------------------------------------------|x2
|09-09-09-09-09-09-09-09-09-09-09-09-09-09-09-09|
|-----------------------------------------------|

Part 6 (Interlude)
|--------------------------------------------|
|--------------------------------------------|
|--------------------------------------------|
|09-xx-xx-09-xx-xx-11-xx-xx-09-xx-xx-14-xx-11|
|09-xx-xx-09-xx-xx-09-xx-xx-09-xx-xx-09-xx-09|
|--------------------------------------------|

Part 7 (Interlude)
|------------------------|
|------------------------|
|----------06----06/07/06|
|02-02-00----------------|
|02-02-00--04----04/05/04|
|02-02-00-----00---------|

Part 8 (Interlude)
|--------------------------------------------|
|--------------------------------------------|
|--------------------------------------------|
|09-------09-------11-------09-------14----11|
|09-09-09-09-09-09-09-09-09-09-09-09-09-09-09|
|--------------------------------------------|

play Part 7 again

Part 9 (Prechorus)
|------------------------------------------------------------------|
|------------------------------------------------------------------|
|------------------------------------------------------------------|
|09-------------09-------------11-------------09-------------14--11|
|09-09-09-09-09-09-09-09-09-09-09-09-09-09-09-09-09-09-09-09-09--09|
|------------------------------------------------------------------|
|------------------------------------------------------------------|

Part 10 (Prechorus)                   1st     2nd
|------------------------------------(-----)-(-----)|
|------------------------------------(-----)-(-----)|
|------------------------------------(-----)-(-----)|
|06-------07-------04-------05-------(-----)-(-----)|
|07-07-07-07-07-07-05-05-05-05-05-05-(00-02)-(04-05)|
|------------------------------------(00-02)-(04-05)|

play Part 9, 10 again

Part 11 (Chorus)                                   1st        2nd
|----------------------------|--------------------(--------)-(-----)|
|----------------------------|--------------------(--------)-(-----)|
|---14-13-11-13--11----------|---14-13-14-16--14--(--------)-(-----)|
|04--------------------------|00------------------(--------)-(-----)|x2
|04-12-11-09-11--09--07-09-07|00-12-11-12-14--12--(11-12-11)-(14-16)|
|04--------------------------|00------------------(--------)-(-----)|

than repeat Part 1-11

Part 1 again THAN:

Part 12
|09-09-09-09-09--09-09-09-09-09--09-09-09--12-12-12-12-12--14-14-14-14-14|
|10-10-10-10-10--10-10-10-10-10--10-10-10--10-10-10-10-10--10-10-10-10-10|
|11-11-11-11-11--11-11-11-11-11--11-11-11--11-11-11-11-11--11-11-11-11-11|
|------------------------------------------------------------------------|
|------------------------------------------------------------------------|
|------------------------------------------------------------------------|

Fill  Part 13 (Interlude)         Part 14 (Interlude)
|-----|-----------------------|   |-----------------------|
|-----|-----------------------|   |-----------------------|
|-----|-----------------------|   |-----------------------|
|07-05|-----------------------|x2 |-----------------------|
|07-05|04-07-00-04-04-04-05---|   |04-07-00-00-00-09-09---|
|07-05|04-07-00-00-00-00-00-00|   |04-07-00-00-00-09-09-00|

Part 13 again

Part 15
|---------------------|
|---------------------|
|---------------------|
|---------------------|
|04-07-00--09-07-07-06|
|04-07-00--09-07-07-06|

Part 11 again

Part 1, 6 times in variations (better to work out by yurself to get the real feeling)

1st: 1 2 3 4 5 6 7 8 7 9 10 9 10 11
2nd: 1 2 3 4 5 6 7 8 7 9 10 9 10 11
Int: 1 12 fill 13 14 13 15 11
End: 1 1 1 1 1 1

enjoy it!
Tap to rate this tab
# A B C D E F G H I J K L M N O P Q R S T U V W X Y Z