Guitaretab - guitar tabs
Song name
# A B C D E F G H I J K L M N O P Q R S T U V W X Y Z

360 Gradi - Sandra tab

Intro:
e----------------------------------------------------------|
B----------------------------------------------------------|
G----0---------0----------0---------------0----------------|
D------5---------5----------5------------------------------|
A--------5---------5---3------5-----3--5-----5-------------|
Eó3----------o---------------------------------------------|

Verse 1:
G                 Em               C            D
Sandra portami al mare compriamo il pane e un forellino
G                 Em              C          D
bella cuore di panna Cuba in Romagna cioccolatino
G                 Em            C         D
prendi tutte le cose tutti i colori di questo giorno qua


e----------------------------------------------------------|
B----------------------------------------------------------|
G----0---------0----------0-------0------0-----0------0----|
D------5---------5----------5-------5------5-----5---------|
A--------5---------5---3------5-------5------5-----5-------|
Eó3----------o---------------------------------------------|

Same chords as verse 1

[ Tab from: http://www.guitaretab.com/numeric/360-gradi/76333.html ]
Verse 2:
Sandra sai di nutella pelle che brilla ti spalmo il miele
guarda che arriva l'onda mora e gioconda distesa al sole
perso nelle tue pose nei tuoi sapori come un bambino
specchio nelle mie brame chiottola il pane sul forellino

Chorus:
C                G             C         D
Sandra alza la radio dammi la mano come corre il tempo
C              G              C          D
bella senza rimedio Cuba Ť vicino amore controvento
G                Em               C             D
lascia mille sorrisi i tuoi paradisi ancora un altro giorno
G             Em               C       D
Sandra cede calore portami al mare al tuo ritorno

Verse 3:
Sandra la notte Ť finita evviva la vita e stiamo ancora insieme
lascia i brutti pensieri di oggi e di ieri che adesso ho fame
bella come nessuno sento il profumo viene dal giardino forse non sei tu ma il pane che 
sul forellino

Then the chorus

And then this
C                       G                C
Sai che in fondo la vita, crea le distanze, ma in
 D
questo sogno
C                     G              D
Sandra, forse ho bisogno, solo di te....

Chorus x2

Thatís all itís an easy but great song

Itís my first tab so please rate