Song name
# A B C D E F G H I J K L M N O P Q R S T U V W X Y Z

40 Gramos - Tal Vez tab

   B5       G#5       F#5       Em
|-----|   |-----|   |-----|   |-----|
|-----|   |-----|   |-----|   |-----|
|--4--|   |-----|   |-----|   |-----|
|--4--|   |--6--|   |--4--|   |--2--|
|--2--|   |--6--|   |--4--|   |--2--|
|-----|   |--4--|   |--2--|   |--0--|


Intro:


|-----------------------|      |------|
|-----------------------|      |------|
|-----------------9-8-9-|      |------|
|-8/9-9-x-9-(x3)--9-8-9-| (x4) |-7----|
|-----------------7-6-7-|      |------|
|-----------------------|      |------|

Verse:

B5              G#5                   F#5            Em
Ya para recordar, iniciemos la amistad, Hablamos tal vez demasiado
B5                 G#5              F#5               Em
El tiempo se marcho, cosigo se llevo, recuerdos que juntos guardamos

Chorus:

B5                   G#5                 F#5            Em
Si la felicidad lloro, la tristeza sonrio, recuerda que estoy a tu lado
B5                 G#5               F#5              Em
Melancolia que lleno, todo tu corazon, sentimientos que se enconrtaron

chorus can be filled by this:

|---------------|
|---------------|
|-8--11-6--4--6-|
|-x--x--x--x--x-| (x2)
|-6--9--4--2--4-|
|---------------|


  B5 G#5 F#5 Em
|-----------------------------------------------|
|-----------------------------------------------|
|---------------------8---9-9---9h11-11-9-8-9-8-|
|-8/9-9-x-9-(x3)--9-9---9-----9-----------------|
|-----------------------------------------------|
|-----------------------------------------------|


B5               G#5                F#5              Em
Pero todo termino, un final encontro, dejando todo en el pasado
B5                  G#5               F#5               Em
Una leyenda se formo, del mas puro amor de seres que un dia se encontraron


Chorus:

B5                   G#5                 F#5            Em
Si la felicidad lloro, la tristeza sonrio, recuerda que estoy a tu lado
B5                 G#5               F#5              Em
Melancolia que lleno, todo tu corazon, sentimientos que se enconrtaron

Chorus can be filled by this:

|---------------|
|---------------|
|-8--11-6--4--6-|
|-x--x--x--x--x-| (x2)
|-6--9--4--2--4-|
|---------------|


Bridge:


|----------------------------------------------------------------|
|----------------------------------------------------------------|
|----------------------------------------------------------------|
|-9-999-999-999-99-6-666-666-666-66-4-444-444-444-44-22-22-22-22-| (x2)
|-9-999-999-999-99-6-666-666-666-66-4-444-444-444-44-22-22-22-22-|
|-7-777-777-777-77-4-444-444-444-44-2-222-222-222-22-00-00-00-00-|

|-12-11--------12-11----9----|
|-------12-----------12---12-|
|----------11----------------|
|----------------------------|
|----------------------------|
|----------------------------|


Last Chorus:

B5                   G#5                 F#5            Em
Si la felicidad lloro, la tristeza sonrio, recuerda que estoy a tu lado
B5                 G#5               F#5              Em
Melancolia que lleno, todo tu corazon, sentimientos que se enconrtaron

  B5                          G#5
|---------------------------------------------------------|
|-12-----11--11-12-----11--11-14-----12--12-14-----12--12-|
|---11-11--11-----11-11--11-----11-11--11-----11-11--11---|
|---------------------------------------------------------|
|---------------------------------------------------------|
|---------------------------------------------------------|
|---------------------------------------------------------|
  F#5                          Em
 ---------------------------------------------------------|
 -12-----11--11-12-----11--11--12h14-12------14-12-11--11-|
 ---11-11--11-----11-11--11------------15-11---------11---|
 ---------------------------------------------------------|
 ---------------------------------------------------------|
 ---------------------------------------------------------|

  B5                          G#5
|---------------------------------------------------------|
|-12-----11--11-12-----11--11-14-----12--12-14-----12--12-|
|---11-11--11-----11-11--11-----11-11--11-----11-11--11---|
|---------------------------------------------------------|
|---------------------------------------------------------|
|---------------------------------------------------------|
|---------------------------------------------------------|

  F#5                          Em                            B5
 -----------------------------------------------------------------|
 -12-----11--11-12-----11--11--12h14-12------12h14-12--12h14-12---|
 ---11-11--11-----11-11--11------------15-11---------15-----------|
 -----------------------------------------------------------------|
 -----------------------------------------------------------------|
 -----------------------------------------------------------------|

enjoy, (:

http://www.40gramos.com/
Tap to rate this tab
 
# A B C D E F G H I J K L M N O P Q R S T U V W X Y Z