Song name
# A B C D E F G H I J K L M N O P Q R S T U V W X Y Z

50 Cent - Pimp tab

Help us improve GuitareTab! Take a short survey!
Artist: 50 cent
Song: Pimp
Tab: A-nasty Blakesinator


--------------------------------------------------------------|
--------------------------------------------------------------|
----------11-11-11-11-11-----------------11-11-11-11-11----10-|
-13-13-13---------------12-13---13-13-13----------------13----|
--------------------------------------------------------------|
--------------------------------------------------------------|


--------------------------------------------------------------|
--------------------------------------------------------------|
-10-10-10-13-13-13-13-13-10-----10-10-10-13-13-13-13-13-------|
----------------------------12--------------------------12-13-|
--------------------------------------------------------------|
--------------------------------------------------------------|

you can play rap, but do it to be funny.
play ROCK N ROLL the rest of the time.
Related for Pimp tab