Guitaretab - guitar tabs
Song name
# A B C D E F G H I J K L M N O P Q R S T U V W X Y Z

69 Eyes - Shadow Of Your Love tab

Tabbed By: Jake Freeman

May not be correct but it's how I figured it out.
[ Tab from: http://www.guitaretab.com/numeric/69-eyes/188618.html ]
--------------------------|
--------------------------|
--------------------------|
---2-5-3---0-2------------|   x3
--0-0-0---0-0-------------|
--------------------------|


--------------------------|
--------------------------|
--------------------------|
---2-5-3-----9-9---9-7-5--|
--0-0-0------7-7---7-5-3--|
--------------------------|


Let me know if it's wrong.
Related for Shadow Of Your Love tab
Advertisement will be closed in 10 seconds