Song name
# A B C D E F G H I J K L M N O P Q R S T U V W X Y Z

7 Days Away - Take Me Away tab

Artist:7 Days Away
Song:Take Me Away
Album:The Punisher:War Zone Soundtrack
Guitarists:Skylar Nichols and Zach Jackson
Tabber:Dev Fuld

Key:
x = Mute
n = Natural Harmonic
* = Let it ring

Standard Tuning

Lead Intro (palm mute)
|-------------------------------|-------------------------------|
|-------------------------------|-------------------------------|
|-------------------------------|-------------------------------|
|------------------------5------|------------------------5------|
|------5-5-5-7-7-7-5-5-7---7-5--|------5-5-5-7-7-7-5-5-7---7-5--|
|0-0-0-------------------------7|0-0-0-------------------------7|

Rhythm Intro (enter at about 5 seconds in)
|----------------------------|
|----------------------------|
|----------------------------|
|xx-2--xx-5--7--9--x-xxx-xxxx|
|xx-2--xx-3--5--7--x-xxx-xxxx|
|xx-0--xx-3--5--7--x-xxx-xxxx|

|-------------------------------|-------------------------------|
|-------------------------------|-------------------------------|
|-------------------------------|-------------------------------|
|------------------------5------|------------------------5------|
|------5-5-5-7-7-7-5-5-7---7-5--|------5-5-5-7-7-7-5-5-7---7-5--|
|0-0-0-------------------------7|0-0-0-------------------------7|

|-------------------------------|-------------------------------|
|-------------------------------|-------------------------------|
|-------------------------------|-------------------------------|
|------------------------5------|------------------------5------|
|------5-5-5-7-7-7-5-5-7---7-5--|------5-5-5-7-7-7-5-5-7---7-5--|
|0-0-0-------------------------7|0-0-0-------------------------7|


Verse
Lead guitar plays the intro riff throughout Verse

Rhythm
|----------|----------|----------|----------|
|----------|----------|----------|----------|
|----------|----------|----------|----------|
|2-2--2---2|5-5--5---5|7-7--7---7|9-9--9----|
|2-2--2---2|3-3--3---3|5-5--5---5|7-7--7----|
|0-0--0---0|3-3--3---3|5-5--5---5|7-7--7----|

|----------|----------|----------|----------|
|----------|----------|----------|----------|
|----------|----------|----------|----------|
|2-2--2---2|5-5--5---5|7-7--7---7|9-9--9----|
|2-2--2---2|3-3--3---3|5-5--5---5|7-7--7----|
|0-0--0---0|3-3--3---3|5-5--5---5|7-7--7----|

|----------|----------|----------|----------|
|----------|----------|----------|----------|
|----------|----------|----------|----------|
|2-2--2---2|5-5--5---5|7-7--7---7|9-9--9----|
|2-2--2---2|3-3--3---3|5-5--5---5|7-7--7----|
|0-0--0---0|3-3--3---3|5-5--5---5|7-7--7----|


Rhythm Pre-Chorus
|------------------------------------|
|------------------------------------|
|------------------------------------|
|5-5-------5-5-------5-5-------5-5--7|
|3-3-------3-3-------3-3-------3-3--5|
|3-3-------3-3-------3-3-------3-3--5|

Lead Pre-Chorus
|------------------------------------|
|------------------------------------|
|----5n-------5n-------5n------------|
|------5n-------5n-------5n----------|
|--------5n-------5n-------5n--------|
|------------------------------------|


Rhythm Chorus
|----------------------------|----------------------------|
|----------------------------|----------------------------|
|----------------------------|----------------------------|
|9*-----5*-----7*-----9*-----|9*-----5*-----7*-----9*-----|
|7*-----3*-----5*-----7*-----|7*-----3*-----5*-----7*-----|
|7*-----3*-----5*-----7*-----|7*-----3*-----5*-----7*-----|

Lead Chorus
|--------------|--------------|--------------|------------|
|--------------|--------------|--------------|------------|
|--------------|--------------|--------------|------------|
|9--5-5-4-4----|5--5-5-4-4----|7--5-5-4-4----|9*----------|
|7----------5-5|3----------5-5|5----------5-5|7*----------|
|7-------------|3-------------|5-------------|7*----------|

|--------------|--------------|--------------|------------|
|--------------|--------------|--------------|------------|
|--------------|--------------|--------------|------------|
|9--5-5-4-4----|5--5-5-4-4----|7--5-5-4-4----|9*----------|
|7----------5-5|3----------5-5|5----------5-5|7*----------|
|7-------------|3-------------|5-------------|7*----------|

After Chorus
|----------|----------|----------|----------|
|----------|----------|----------|----------|
|----------|----------|----------|----------|
|2-2--5-0-2|2-2--5-0-2|2-2--5-0-2|2-x-xx-x--|
|2-2-------|2-2-------|2-2-------|2-x-xx-x--|
|0-0-------|0-0-------|0-0-------|0-x-xx-x--|

Second Verse
|------------------------|
|------------------------|
|------------------------|
|2-----5-----7-----9-----|
|2-----3-----5-----7-----|
|0-----3-----5-----7-----|

Then play like it's the first verse


Pre-Chorus


Chorus


After Chorus


Bridge
|-------------------------|-------------------------|-------------------------|
|-------------------------|-------------------------|-------------------------|
|-------------------------|-------------------------|-------------------------|
|-------------------------|-------------------------|-------------------------|
|-------5--3-3-----3-5-3--|-------5--3-3-----3-5-3--|-------5--3-3-----3-5-3--|
|0-0--0--------0-3-------3|0-0--0--------0-3-------3|0-0--0--------0-3-------3|

|---------------------|
|---------------------|
|---------------------|
|---------------------|
|-------5--3-3-3-5-5-5|
|0-0--0---------------|

|----------------|----------------|----------------|----------------|
|----------------|----------------|----------------|----------------|
|---7--5---------|---7--5---------|---7--5---------|---7--5---------|
|2--7--5---------|2--7--5---------|2--7--5---------|2--7--5---------|
|2--5--3------3--|2--5--3------3--|2--5--3------3--|2--5--3------3--|
|0--------3-5---5|0--------3-5---5|0--------3-5---5|0--------3-5---5|

|----------------|----------------|----------------|----------------|
|----------------|----------------|----------------|----------------|
|---7--5---------|---7--5---------|---7--5---------|---7--5---------|
|2--7--5---------|2--7--5---------|2--7--5---------|2--7--5---------|
|2--5--3------3--|2--5--3------3--|2--5--3------3--|2--5--3------3--|
|0--------3-5---5|0--------3-5---5|0--------3-5---5|0--------3-5---5|

Lead
|---------------|-----------------|----------------|----------------|
|---------------|-----------------|----------------|----------------|
|---------------|-----------------|----------------|----------------|
|2--7--5*-------|2--9*------------|2--7--5*--------|2---------------|
|2--------------|2----------------|2---------------|2--7*-----------|
|0--------------|0----------------|0---------------|0---------------|


Chorus


End
|----------|----------|----------|----------|------|
|----------|----------|----------|----------|------|
|----------|----------|----------|----------|------|
|2-2--5-0-2|2-2--5-0-2|2-2--5-0-2|2-2--5-0-2|2*----|
|2-2-------|2-2-------|2-2-------|2-2-------|2*----|
|0-0-------|0-0-------|0-0-------|0-0-------|0*----|


That's it! Not easy, but not hard! It's already in order so plug in and kick ass.
Any questions or comments, e-mail me at rocklvson@yahoo.com
Tap to rate this tab
# A B C D E F G H I J K L M N O P Q R S T U V W X Y Z