Song name
# A B C D E F G H I J K L M N O P Q R S T U V W X Y Z

8 Kalacas - Dime tab

Tuning:DADGBE

Intro
|------4--4--4------4--4------3--3--3--3------3--3--3------6--6--6-|
|------6--6--6------6--6------4--4--4--4------4--4--4------6--6--6-|
|------------------------------------------------------------------|
|------------------------------------------------------------------|
|-----------------------------------------------------4-4----------|
|-3-3----------3-3-------3-3-------------3-3-----------------------|

|------6--6------4--4--4--4---------------|
|------6--6------6--6--6--6---------------|
|-----------------------------------------|
|-----------------------------------------|
|-4-4-------4-4-------------4-4--4-6-6--6-|
|-----------------------------------------|

Guitar 1, Clean
|------4--4--4------4--4------3--3--3--3------3--3--3------6--6--6-|
|------6--6--6------6--6------4--4--4--4------4--4--4------6--6--6-|
|------------------------------------------------------------------|
|------------------------------------------------------------------|
|-----------------------------------------------------4-4----------|
|-3-3----------3-3-------3-3-------------3-3-----------------------|

|------6--6------4--4--4--4---------------|
|------6--6------6--6--6--6---------------|
|-----------------------------------------|
|-----------------------------------------|
|-4-4-------4-4-------------4-4--4-6-6--6-|
|-----------------------------------------|

Guitar 2, Distorted
|------------------------------------------------------------------|
|------------------------------------------------------------------|
|------------------------------------------------------------------|
|-----------------------------------------------------6-6----------|
|-3-3----------3-3-------3-3-------------3-3----------4-4----------|
|-3-3----------3-3-------3-3-------------3-3-----------------------|

|-----------------------------------------|
|-----------------------------------------|
|-----------------------------------------|
|-6-6-------6-6-------------6-6--6-8-8--8-|
|-4-4-------4-4-------------4-4--4-6-6--6-|
|-----------------------------------------|

Guitar 1
|------4--4--4------4--4------3--3--3--3------3--3--3------6--6--6-|
|------6--6--6------6--6------4--4--4--4------4--4--4------6--6--6-|
|------------------------------------------------------------------|
|------------------------------------------------------------------|
|-----------------------------------------------------4-4----------|
|-3-3----------3-3-------3-3-------------3-3-----------------------|

|------6--6------4--4--4--4---------------|
|------6--6------6--6--6--6---------------|
|-----------------------------------------|
|-----------------------------------------|
|-4-4-------4-4-------------4-4-4-4-6-6-6-|
|-----------------------------------------|

Guitar 2
|------------------------------------------------------------------|
|------------------------------------------------------------------|
|------------------------------------------------------------------|
|-----------------------------------------------------6-6----------|
|-3-3----------3-3-------3-3-------------3-3----------4-4----------|
|-3-3----------3-3-------3-3-------------3-3-----------------------|

|-----------------------------------------|
|-----------------------------------------|
|-----------------------------------------|
|-6-6-------6-6-------------6-6-6-6-8-8-8-|
|-4-4-------4-4-------------4-4-4-4-6-6-6-|
|-----------------------------------------|


Riff 1
|-----------------------------------------------------|
|-----------------------------------------------------|
|-----------------------------------------------------|
|-------------------6-5-3\--------------------6-5-3\--|
|-3-3--3--3--3--3-----------3-3--3--3--3--3-----------|
|-3-3--3--3--3--3-----------3-3--3--3--3--3-----------|

Guitar 1
|----------------------------------------------------|
|----------------------------------------------------|
|----------------------------------------------------|
|-6-6--6--6--6--6--6-8-8-8--6-6--6--6--6--6--6-8-8-8-|
|-4-4--4--4--4--4--4-6-6-6--4-4--4--4--4--4--4-6-6-6-|
|----------------------------------------------------|
                  
                   Guitar 2
                   |--------|
                   |--------|
                   |--------|
                   |-6-5-3\-|
                   |--------|
                   |--------|

Riff 2
|---------------------------|x2
|---------------------------|
|---------------------------|
|---------------------------|
|-3-3--3--3--3--3--3--3-1-1-|
|-3-3--3--3--3--3--3--3-1-1-|

|-----------------------------------------------------|
|-----------------------------------------------------|
|-----------------------------------------------------|
|-6-6--6--6--6--6--6-8-8-8-8-8-6--6--6--6--6--6-8-8-8-|
|-4-4--4--4--4--4--4-6-6-6-6-6-4--4--4--4--4--4-6-6-6-|
|-----------------------------------------------------|

Riff 2 x2


|-----------------------------------------------------|
|-----------------------------------------------------|
|-----------------------------------------------------|
|-------------------6-5-3\--------------------6-5-3\--|
|-3-3--3--3--3--3-----------3-3--3--3--3--3-----------|
|-3-3--3--3--3--3-----------3-3--3--3--3--3-----------|

Guitar 1
|----------------------------------------------------|
|----------------------------------------------------|
|----------------------------------------------------|
|-6-6--6--6--6--6--6-8-8-8--6-6--6--6--6--6--6-8-8-8-|
|-4-4--4--4--4--4--4-6-6-6--4-4--4--4--4--4--4-6-6-6-|
|----------------------------------------------------|
                  
                   Guitar 2
                   |--------|
                   |--------|
                   |--------|
                   |-6-5-3\-|
                   |--------|
                   |--------|


|---------------------------|x2
|---------------------------|
|---------------------------|
|---------------------------|
|-3-3--3--3--3--3--3--3-1-1-|
|-3-3--3--3--3--3--3--3-1-1-|

|-----------------------------------------------------|
|-----------------------------------------------------|
|-----------------------------------------------------|
|-6-6--6--6--6--6--6-8-8-8-8-8-6--6--6--6--6--6-8-8-8-|
|-4-4--4--4--4--4--4-6-6-6-6-6-4--4--4--4--4--4-6-6-6-|
|-----------------------------------------------------|

Chorus
|---------------------------|
|---------------------------|
|---------------------------|
|------------------5h6--5-0-|
|-3-3--3--3--3--3-----------|
|-3-3--3--3--3--3-----------|

|---------------------------|
|---------------------------|
|---------------------------|
|------------------3h5--3h5-|
|-3-3--3--3--3--3-----------|
|-3-3--3--3--3--3-----------|

|-------------------------------|
|-------------------------------|
|-------------------------------|
|-6-6--6--6--6--6--6--6--6h8--8-|
|-4-4--4--4--4--4--4------------|
|-------------------------------|

|------------------------------------|
|------------------------------------|
|------------------------------------|
|-6-6--6--6--6--6--6--8/10--10-8-6-5-|
|-4-4--4--4--4--4--4-----------------|
|------------------------------------|


Guitar 1
|------4--4--4------4--4------3--3--3--3------3--3--3------6--6--6-|
|------6--6--6------6--6------4--4--4--4------4--4--4------6--6--6-|
|------------------------------------------------------------------|
|------------------------------------------------------------------|
|-----------------------------------------------------4-4----------|
|-3-3----------3-3-------3-3-------------3-3-----------------------|

|------6--6------4--4--4--4---------------|
|------6--6------6--6--6--6---------------|
|-----------------------------------------|
|-----------------------------------------|
|-4-4-------4-4-------------4-4-4-4-6-6-6-|
|-----------------------------------------|

Guitar 2
|------------------------------------------------------------------|
|------------------------------------------------------------------|
|------------------------------------------------------------------|
|-----------------------------------------------------6-6----------|
|-3-3----------3-3-------3-3-------------3-3----------4-4----------|
|-3-3----------3-3-------3-3-------------3-3-----------------------|

|-----------------------------------------|
|-----------------------------------------|
|-----------------------------------------|
|-6-6-------6-6-------------6-6-6-6-8-8-8-|
|-4-4-------4-4-------------4-4-4-4-6-6-6-|
|-----------------------------------------|

Riff 2
|---------------------------|x2
|---------------------------|
|---------------------------|
|---------------------------|
|-3-3--3--3--3--3--3--3-1-1-|
|-3-3--3--3--3--3--3--3-1-1-|

|-----------------------------------------------------|
|-----------------------------------------------------|
|-----------------------------------------------------|
|-6-6--6--6--6--6--6-8-8-8-8-8-6--6--6--6--6--6-8-8-8-|
|-4-4--4--4--4--4--4-6-6-6-6-6-4--4--4--4--4--4-6-6-6-|
|-----------------------------------------------------|

Riff 2 x2

Riff 1
|-----------------------------------------------------|
|-----------------------------------------------------|
|-----------------------------------------------------|
|-------------------6-5-3\--------------------6-5-3\--|
|-3-3--3--3--3--3--3--------3-3--3--3--3--3-----------|
|-3-3--3--3--3--3--3--------3-3--3--3--3--3-----------|

Guitar 1
|----------------------------------------------------|
|----------------------------------------------------|
|----------------------------------------------------|
|-6-6--6--6--6--6--6-8-8-8--6-6--6--6--6--6--6-8-8-8-|
|-4-4--4--4--4--4--4-6-6-6--4-4--4--4--4--4--4-6-6-6-|
|----------------------------------------------------|
                  
                   Guitar 2
                   |--------|
                   |--------|
                   |--------|
                   |-6-5-3\-|
                   |--------|
                   |--------|

Chorus
|---------------------------|
|---------------------------|
|---------------------------|
|------------------5h6--5-0-|
|-3-3--3--3--3--3-----------|
|-3-3--3--3--3--3-----------|

|---------------------------|
|---------------------------|
|---------------------------|
|------------------3h5--3h5-|
|-3-3--3--3--3--3-----------|
|-3-3--3--3--3--3-----------|

|-------------------------------|
|-------------------------------|
|-------------------------------|
|-6-6--6--6--6--6--6--6--6h8--8-|
|-4-4--4--4--4--4--4------------|
|-------------------------------|

|-------------------------|
|-------------------------|
|-------------------------|
|-6-6--6---8/10--10-8-6-5-|
|-4-4--4------------------|
|-------------------------|

Solo
|-----------------------------------------------------------------|
|-----------------------------------------------------------------|
|-----------------------------------------------------------------|
|-5h6p5h6p5h6p5h6p5h6p5h6p5h6p5h6-3h5p3h5p3h5p3h5p3h5p3h5p3h5p3h5-|
|-----------------------------------------------------------------|
|-----------------------------------------------------------------|

|---------------------------------------------------------------------|
|---------------------------------------------------------------------|
|---------------------------------------------------------------------|
|-6h8p6h8p6h8p6h8p6h8p6h8p6h8p6h8-8h10p8h10p8h10p8h10-6h8p6h8p6h8p6h8-|
|---------------------------------------------------------------------|
|---------------------------------------------------------------------|

|------------------------------------------------|
|------------------------------------------------|
|------------------------------------------------|
|-5\3--1-1h3-5/6\5--1-1h3--1-1h3--5/8\6/8-8h10---|
|------------------------------------------------|
|------------------------------------------------|

|-----------------------------------------------------------------|
|-----------------------------------------------------------------|
|-----------------------------------------------------------------|
|-10--10--10--8-6-5/6\3---5b6r5b6r5b6r5-3--1-1h3--5b6r5b6r5b6r5-3-|
|-----------------------------------------------------------------|
|-----------------------------------------------------------------|

|-----------------|
|-----------------|
|-----------------|
|-1-3-5-3-5-6-5-3-|
|-----------------|
|-----------------|

Riff 3
|-----------------------------|
|-----------------------------|
|-----------------------------|
|----------------------6-5-3\-|
|-3-3-3-3--3-3-3--3-3---------|
|-3-3-3-3--3-3-3--3-3---------|

|-----------------------------|
|-----------------------------|
|-----------------------------|
|----------------------6-5-3\-|
|-3-3-3-3--3-3-3--3-3---------|
|-3-3-3-3--3-3-3--3-3---------|

|-------------------------------|
|-------------------------------|
|-------------------------------|
|-6-6--6--6--6--6--6--6--6h8--8-|
|-4-4--4--4--4--4--4------------|
|-------------------------------|

|-------------------------|
|-------------------------|
|-------------------------|
|-6-6--6---8/10--10-8-6-5-|
|-4-4--4------------------|
|-------------------------|


Riff 1
|-----------------------------------------------------|
|-----------------------------------------------------|
|-----------------------------------------------------|
|-------------------6-5-3\--------------------6-5-3\--|
|-3-3--3--3--3--3-----------3-3--3--3--3--3-----------|
|-3-3--3--3--3--3-----------3-3--3--3--3--3-----------|

Guitar 1
|----------------------------------------------------|
|----------------------------------------------------|
|----------------------------------------------------|
|-6-6--6--6--6--6--6-8-8-8--6-6--6--6--6--6--6-8-8-8-|
|-4-4--4--4--4--4--4-6-6-6--4-4--4--4--4--4--4-6-6-6-|
|----------------------------------------------------|
                  
                   Guitar 2
                   |--------|
                   |--------|
                   |--------|
                   |-6-5-3\-|
                   |--------|
                   |--------|

Riff 2
|---------------------------|x2
|---------------------------|
|---------------------------|
|---------------------------|
|-3-3--3--3--3--3--3--3-1-1-|
|-3-3--3--3--3--3--3--3-1-1-|

|-----------------------------------------------------|
|-----------------------------------------------------|
|-----------------------------------------------------|
|-6-6--6--6--6--6--6-8-8-8-8-8-6--6--6--6--6--6-8-8-8-|
|-4-4--4--4--4--4--4-6-6-6-6-6-4--4--4--4--4--4-6-6-6-|
|-----------------------------------------------------|

Chorus
|---------------------------|
|---------------------------|
|---------------------------|
|------------------5h6--5-0-|
|-3-3--3--3--3--3-----------|
|-3-3--3--3--3--3-----------|

|---------------------------|
|---------------------------|
|---------------------------|
|------------------3h5--3h5-|
|-3-3--3--3--3--3-----------|
|-3-3--3--3--3--3-----------|

|-------------------------------|
|-------------------------------|
|-------------------------------|
|-6-6--6--6--6--6--6--6--6h8--8-|
|-4-4--4--4--4--4--4------------|
|-------------------------------|

|-------------------------|
|-------------------------|
|-------------------------|
|-6-6--6---8/10--10-8-6-5-|
|-4-4--4------------------|
|-------------------------|

Outro
|-------------------------------------------------------|
|-------------------------------------------------------|
|-------------------------------------------------------|
|-------------------------------------------------------|
|-3-3-x-x-x-x-3-3-x-x-x-3-3-x-x-x-x-x-x-x-3-3--3-1-1--1-|
|-3-3-x-x-x-x-3-3-x-x-x-3-3-x-x-x-x-x-x-x-3-3--3-1-1--1-|

|-------------------------------------------------------------------------|
|-------------------------------------------------------------------------|
|-------------------------------------------------------------------------|
|-6-6-x-x-x-x-6-6-x-x-x-6-6-x-x-x-x-x-x-x-6--6--6--6--8--8--8--8----------|
|-4-4-x-x-x-x-4-4-x-x-x-4-4-x-x-x-x-x-x-x-4--4--4--4--6--6--6--6--3-------|
|-----------------------------------------------------------------3-------|


\=Slide down
/=Slide up
h=Hammer on
p=Pull off
b=Bend string
r=Release bend
x=Heavy damping
Tap to rate this tab
 
# A B C D E F G H I J K L M N O P Q R S T U V W X Y Z