Song name
# A B C D E F G H I J K L M N O P Q R S T U V W X Y Z

98 Mute - Mad tab

-------------------------------------------------------------------------------
			     M.A.D. - 98 mute
-------------------------------------------------------------------------------

Tabbed by:mojosimpson
Email:Mojosimpson60@hotmail.com

Tuning:normal

2nd part at bottom

the whole song is almost the same thing except
the end...and its also palm muted in some verse parts

e|------------------------------------------------------------------------|
B|------------------------------------------------------------------------|
G|------------------------------------------------------------------------|
D|-----2-------7--------5--------7----------------------------------------|
A|-----2-------7--------5--------7----------------------------------------|
E|-----0-------5--------3--------3----------------------------------------|

ending

e|-----------------------------------------------------------------------|
B|-----------------------------------------------------------------------|
G|-----------------------------------------------------------------------|
D|-----2-------7--------5--------7------------------2--------------------|
A|-----2-------7--------5--------7------------------2--------------------|
E|-----0-------5--------3--------3------------------0--------------------|
                                                ^played once and let  it ring out

heres the higher 2nd guitar part...i think its correct,
if not u might be able to adjust it
                                           
e|--------------------------------------------------------------------|
B|-------10-------8----------10--------7\-----------------------------|
G|-------13------11---------13--------10\-----------------------------|
D|---------------------------------------------^slide down here-------|
A|--------------------------------------------------------------------|
E|--------------------------------------------------------------------|

in the end really quite after the song,,, there a little guitar thing thats
double picked(or played really fast)

e|----------------------------------------------------------------|
B|----------------------------------------------------------------|
G|----------------------------------------------------------------|
D|---123456789-10-11-12-------------------------------------------|
A|----------------------------------------------------------------|
E|----------------------------------------------------------------|
probably dont need or care about that last part...thats the tab and its a cool
song its pretty easy and if there any corrections then tell me cause i wanna know
Tap to rate this tab
# A B C D E F G H I J K L M N O P Q R S T U V W X Y Z