Song name
# A B C D E F G H I J K L M N O P Q R S T U V W X Y Z

O-zone - Dragostea Din Tei tab

This is pretty much the vocals of the song, let me know what you think

Intro

e-----5-----3-----3-----8--5-----------------------|
B--------------------------------------------------|
G--5-5---5-5---4-4---4-5-----------x4--------------|
D--------------------------------------------------|
A--------------------------------------------------|
E--------------------------------------------------|

The verse isn't worth playing, then theres the

Chorus

e--8--7-8---------7---------------12-10----------10-8-7-8-7------|
B---------10---10---10-8-------13-------12-8---8------------10---|
G------------------------9---------------------------------------|
D----------------------------------------------------------------|
A----------------------------------------------------------------|
E----------------------------------------------------------------|

e--8--7-8---------7-----------------12-10-----10-----------------|
B---------10---10---10-8-------13----------13----13--12-13-10----|
G------------------------9---------------------------------------|
D----------------------------------------------------------------|
A----------------------------------------------------------------|
E----------------------------------------------------------------|

Just repeat what's here for the rest of the song and thats it
Tap to rate this tab
# A B C D E F G H I J K L M N O P Q R S T U V W X Y Z