Song name
# A B C D E F G H I J K L M N O P Q R S T U V W X Y Z

Oar - Dakota tab

Dakota - OAR
Tabbed by:bbong
Email:birenbaum0530@yahoo.com

Tuning:standard

The little lead he does in the chorus (listen to hit and ull hear the tempo its fairly slow)

If you just kept walking on your way...

e|---------13----12---------------------------------------------------------|
B|------------------------13-----12\8-------8-------------------------------|
G|--------------------------------------------------10----------------------|
D|--------------------------------------------------------------------------|
A|--------------------------------------------------------------------------|
E|--------------------------------------------------------------------------|
and then he goes...if you just kept walking on your way
e|-------------------13-----12-------------------------15-------------------|
B|-----------------------------------13-----12------------------------------|
G|--------------------------------------------------------------------------|
D|--------------------------------------------------------------------------|
A|--------------------------------------------------------------------------|
E|--------------------------------------------------------------------------|
and after that he goes...If you just kept walking on, walking on, walking on your way
e|------------13-----12-----------------------------15----------------------|
B|------------------------------13------12-----------------13---12h13----8--|
G|--------------------------------------------------------------------------|
D|--------------------------------------------------------------------------|
A|--------------------------------------------------------------------------|
E|--------------------------------------------------------------------------|

by the way this song is dedicated to the greatest man ever to live on this earth he will 
remember forever JOHN LENNON you are a god and we owe you everything

| /  slide up
| \  slide down
| h  hammer-on
| p  pull-off
| ~  vibrato
| +  harmonic
| x  Mute note
===============================================================================
Tap to rate this tab
# A B C D E F G H I J K L M N O P Q R S T U V W X Y Z