Song name
# A B C D E F G H I J K L M N O P Q R S T U V W X Y Z

Oasis - Dyou Know What I Mean tab

#

From: Karim  
Subject:  (TAB)  D'YOU KNOW WHAT I MEAN - OASIS 
Date: Wed, 8 Oct 1997 19:28:30 +0100

~~~~~D'YOU KNOW WHAT I MEAN~~~~~

written by Noel Gallagher, performed by Oasis



Verse/Chorus :  (capo 2nd fret)

F#m, A, Esus4, B

same as Wonderwall chords, but just play a straight B chord instead of Bsus4

Bridge :

same, ending 

   D                      E
....don't even know you're born




in F#m/Amaj pentatonic, 4th pos (I think)
with wah-pedal

1A

e----12b14---------10----------------------
b----------------12---------12p10-----------
g------------------------------------------11--11



1B
e-----------------------------------------------------------
b----------------10---10---------------------10-------
g----9h11----------------11--9--9h11-----11--



then this whole phrase again but ending with three small bends (could be
wrong - v hard to tell) on fret 12, b-string and then this :

e---------------------------------------
b-----10---12---10--------10----
g---------------------11-------11

and then 1A again but replace 1B with

e----------------------------
b----------------------10---12--10--12b13------10
g----------9---11---------------------------------11--
d-----11------------------------------------------------------

finally, phrase 1A again, ending with some wah-ing about (just improvise =
-
it doesn't really matter what he's doing) and then

b-------12b13---12-------12b13 and sustain, then release.
g--------------------------11-------------------



Tabbed by Karim Adab
karim@zaki.demon.co.uk
=00
------=_NextPart_000_01BCD420.5BBA28A0--



--------------FF6ABD31DF
Tap to rate this tab
# A B C D E F G H I J K L M N O P Q R S T U V W X Y Z