Song name
# A B C D E F G H I J K L M N O P Q R S T U V W X Y Z

Oasis - The Hindu Times tab

The Hindu Times (Solo) - Oasis

Capo on 2nd fret

  A                                                       D     A
|------------------------------------------------------------------|
|---2-3-2b2.25r2--------2-3-5-3-2------2-3-2b2.25r2----------------|
|-2--------------2-2--2--------------2--------------2-2--0--0--2-2-|
|--------------------------------------------------------0--0--2-2-|
|------------------------------------------------------------------|
|------------------------------------------------------------------|

  D                                  A                        
|---2-3-2b2.25r2--------2-3-5-3-2-------------------------------------|
|-3--------------3-3--3----------------2-3-2b2.25r2---------2-3-5-3-2-|
|------------------------------------2---------------2-2--2-----------|
|---------------------------------------------------------------------|
|---------------------------------------------------------------------|
|---------------------------------------------------------------------|

  D                                A                   D     A
|---2-3-2b2.25r2--------2-3-5-3-2--------------------------------|
|-3--------------3-3--3--------------2-3-2b2.25r2----------------|
|----------------------------------2--------------2-2--0--0--2-2-|
|------------------------------------------------------0--0--2-2-|
|----------------------------------------------------------------|
|----------------------------------------------------------------|

--------------------------------------------------------------
                            or
--------------------------------------------------------------


The Hindu Times (Solo) - Oasis

Lead Gtr. - No capo
Rythm Gtr. - Capo on 2nd fret

  A                                                      D     A
|------------------------------------------------------------------|
|-0-4-5-4b4.25r4-0-0--0-4-5-7-5-4----0-4-5-4b4.25r4-0-0--0--0--0-0-|
|--------------------------------------------------------2--2--4-4-|
|--------------------------------------------------------2--2--4-4-|
|------------------------------------------------------------------|
|------------------------------------------------------------------|

  D                                  A
|-0-4-5-4b4.25r4-0-0--0-4-5-7-5-4------------------------------------|
|------------------------------------0-4-5-4b4.25r4-0-0--0-4-5-7-5-4-|
|--------------------------------------------------------------------|
|--------------------------------------------------------------------|
|--------------------------------------------------------------------|
|--------------------------------------------------------------------|

  D                                  A                   D     A
|-0-4-5-4b4.25r4-0-0--0-4-5-7-5-4----------------------------------|
|------------------------------------0-4-5-4b4.25r4-0-0--0--0--0-0-|
|--------------------------------------------------------2--2--4-4-|
|--------------------------------------------------------2--2--4-4-|
|------------------------------------------------------------------|
|------------------------------------------------------------------|

Tap to rate this tab
# A B C D E F G H I J K L M N O P Q R S T U V W X Y Z