Song name
# A B C D E F G H I J K L M N O P Q R S T U V W X Y Z

Oberhofer - Away Frm U tab

-------------------------------------------------------------------------------
			     AWAY FRM U - Oberhofer
-------------------------------------------------------------------------------
Tabbed by: Francis


Tuning: standard

playing solo

e|--------|-----------------------------------------------------------------------|
B|--------|-----------------------------------------------------------------------|
G|--------|------------------11-9---11-9------11-9---11-9---------------9---------|
D|-7~-----|-7---7---7-9-11---------------11---------------11-11-11-9--7--7-11-6--7|
A|------9-|---9---9--------0------0---------0-------0-------0--0--0-0--0--0--0--0-|
E|--------|-----------------------------------------------------------------------|


With band
e|--------------------------------------------------------------------------|
B|--------------------------------------------------------------------------|
G|---------------------11--9---11-9----11-9-11-9------------9---------------|
D|--7----7---9--11------------------11-----------11-11-9--7---7-11-----6--7-|
A|----9----9----------------------------------------------------------------|
E|--------------------------------------------------------------------------|

repeat for verse

     Bm   A  Gsharp  D      Bm2     Fsharp     Csharp m
e|----7---5---4-----10------9-------9-----------4----------------|
B|----7---5---4-----10------9-------10----------5----------------|
G|----7---6---5-----11------7-------11----------6----------------|
D|----9---7---6-----12------9-------11----------6----------------|
A|----9---7---6-----12------9-------9-----------4----------------|
E|----7---5---4-----10------7------------------------------------|

Pre chorus
Bm A

Second prechorus
A Bm2

Chorus
A  Cshm D  A  Gsh
A  Cshm D  A

Preverse
D  Fshm



************************************

| /   slide up
| \   slide down
| h   hammer-on
| p   pull-off
| ~   vibrato
| +   harmonic
| x   Mute note
| b   Bend
| pb  Pre-bend
| br  Bend release
| pbr Pre-bend release
| brb Bend release bend

************************************

http://www.myspace.com/oberhofermusic
Tap to rate this tab
 
# A B C D E F G H I J K L M N O P Q R S T U V W X Y Z