Guitaretab - guitar tabs
Song name
# A B C D E F G H I J K L M N O P Q R S T U V W X Y Z

Obituary - Im In Pain tab

join the death/black tab mailing list my emailing 

OBITUARY - "I'm In Pain"
from the album 'The End Complete'
tabbed by AJMB (toti@caleida.pt)

Tuning: One step down

Intro:      RIFF1:                                       E chord:
   G           G  F# E   D# D D#  A  A# E    C# C           E
|-----|     |--------------------------------------|     |-----|
|-----|     |--------------------------------------|     |-----|
|-----|     |--------------------------------------|     |-----|
|-----|     |-------------8/7-8--------------6--5--|     |-----|
|--5--|     |--5--4--2222-6/5-6---7--8--2222-4--3--|     |--2--|
|--3--|     |--3--2--0000---------5--6--0000-------|     |--0--|

RIFF2:
  F# E   F E  F# E   G E  F# E   F E  F# E   G
|-------------------------------------------------|
|-------------------------------------------------|
|-------------------------------------------------|
|-------------------------------------------------|
|--4-----3-----4-----5-----4-----3-----4-----5-5--|
|--2-0-0-1-0-0-2-0-0-3-0-0-2-0-0-1-0-0-2-0-0-3-3--|

RIFF3:
  F# E   F E  F# E   G   F# E   F E  F# E   G
|------------------------------------------------|
|------------------------------------------------|
|------------------------------------------------|
|------------------------------------------------|
|--4-----3-----4-----5-5--4-----3-----4-----5-5--|
|--2-0-0-1-0-0-2-0-0-3-3--2-0-0-1-0-0-2-0-0-3-3--|

RIFF4:
   A        A#   G  G#     F F#
|-------------------------------|
|-------------------------------|
|-------------------------------|
|-------------------------------|
|--00000000-1111-5---------3-4--|
|----------------3-444444-1-2--|

 RIFF5:
   A    D#   G      A  D#     A# E    A#   A    D#   G
|-----------------------------------------------------------
|-----------------------------------------------------------
|-----------------------------------------------------------
|-------1111-----------111111----2222-----------1111--------
|--0000-------------00--------11------1111-0000-------------
|------------333333----------------------------------333333-
[ Tab from: http://www.guitaretab.com/o/obituary/13772.html ]
                                   FILL1:
    D# A      E  A#   F               E
    ------------------------|      |------------|
    ------------------------|      |------------|
    ------------------------|      |------------|
    11--------22------3333--|      |------------|
    ---000000----1111-------|      |------------|
    ------------------------|      |--00000000--|

RIFF6:
   E  C/C# E     F E G E   F B A#
|---------------------------------|
|---------------------------------|
|---------------------------------|
|------5/6-------------------4-3--|
|------3/4-------3---5-----3-2-1--|
|--0-0-----0-0-0-1-0-3-0-0-1------|

RIFF7:
   E       A# E       A# A E       A# E         C C#
|-----------------------------------------------------|
|-----------------------------------------------------|
|-----------------------------------------------------|
|-----------------------------------------------------|
|-----------8----------8-7----------8----------10-11--|
|--00000000-6-00000000-6-5-00000000-6-00000000- 8- 9--|

RIFF8:
   E A D E A#D#E B E E    G# C#C
|---------------------------------|
|---------------------------------|
|---------------------------------|
|----------------------------6-5--|
|------5-----6-----7-------6-4-3--|
|--0-5---0-6---0-7---0-0-0-4------|

 SONG STRUCTURE:
INTRO  /  RIFF1(X6)  /  E chord  /  RIFF2(X3)  /
[Vocals] RIFF3(X2)  /  RIFF2(X2) /  RIFF4(X4)  /  E chord  /
[1st solo] RIFF5(X2)  /  RIFF4(X4)  /  FILL1  /  RIFF6(X10)  /
RIFF7(X4)  /  FILL1  /  RIFF6(X4)  /  RIFF8(X4)  /  FILL1  /
RIFF6(X2)  /  RIFF8(X4)  /  FILL1  /  RIFF6  [The end]

LYRICS:
The killing is a mean rots in the pain
Fight for the fear of rights
The time is set scream for the help [horror]
Fly thru the darkest nights

The peeling is the skin rotting the soul
Hailing for the chosen son
Mortality the pain fear for the living
Ravage the chosen one

The darkness falls beyond the grave
Blessed ground in which they save
Even though the time has passed
[Your soul is fucked in utter ]

Rotting souls in fear of desperately
Serpent souls in bowels on which to feed
 is out for blood and parts
 craves the blood were feasting on

Help Me Im in pain
Related for Im In Pain tab