Song name
# A B C D E F G H I J K L M N O P Q R S T U V W X Y Z

Obituary - Redneck Stomp tab

Drop D
Riff 1
-----------------------------------------------|
-----------------------------------------------|
-----------------------------------------------|
-----------------------------------------------|      repeat as nesacary
-1111----0---000--1h3-000--6p5-6p5--0----------|
-1111----0---000--1h3-000--6p5-6p5--0----------|
Riff 2
-----------------------------------------------|
-----------------------------------------------|
-----7---9-------------------------------------|      repeat as nesacary
-----5---7-------------------------------------|
-000---0---------------------------------------|
-000---0----000-1p0----------------------------|
Riff 3
-----------------------------------------------|
-----------------------------------------------|
-----------------------------------------------|
-----------------------------------------------|
-0000-4--0000-3--0000-6--0000-5----------------|
-0000-4--0000-3--0000-6--0000-5----------------|
Riff 4
-----------------------------------------------|
-----------------------------------------------|
-----------------------------------------------|      repeat 3x
-----------------------------------------------|
-----------------------------------------------|
-000000000000003h4p3h4-------------------------|
then after 3rd time
-----------------------------------------------|
-----------------------------------------------|
-----------------------------------------------|
-----------------------------------------------|
-----------------------------------------------|
-000000000000005h6p5h6-------------------------|
Tap to rate this tab
# A B C D E F G H I J K L M N O P Q R S T U V W X Y Z