Song name
# A B C D E F G H I J K L M N O P Q R S T U V W X Y Z

Odyssice - Scream tab

BAND - ODYSSICE
SONG - SCREAM
FROM - IMPRESSIONS

  h - Hammer On
  p - Pull Off
  s - Slide
  b - Bend
 br - Bend Reverse
 rb - Reverse Bend
rbp - Reverse Bend Pull Off
 XX - Scratch Down Strings W/ Pleck

                                                    THIS NOTE IS EITHER
USE VOLUME CONTROL ON GUITAR FOR THESE NOTES        THE NOTE OR FEEDBACK
[00:28------------------------------------------------16-------]
[-------------17---------12------8--7-------------WHAMMY DIVE--]
[--------------------------------------------------------------]
[--------------------------------------------------------------]
[--------------------------------------------------------------]
[---0-------------------------------------------0--------------]


01:32
[------------|--19--------|------------|--24--19-----]
[--------17--|-----19-----|--------17--|---------20--]
[-----16-----|--------19--|-----16-----|-------------]
[--17--------|------------|--17--------|-------------]
[------------|------------|------------|-------------]
[------------|------------|------------|-------------]


01:46
[----------p----------|--------------p-p-------b---------------------]
[--8--10--8-7---------|--8--10--6---6-5-3-5----5---------------------]
[-------------9----x3-|----------------------------------------------]
[---------------------|----------------------------------------------]
[---------------------|--------------------------SCRATCH WITH PLECK--]
[---------------------|-----------------------------X-X-X-X-X-X------]


                                              P
[---p----------------------------|--s--12---15-14-12---b-r--]
[--8-7---------h------8-7--p-h---|--\12--12----------15-----]
[------9-7-9--7-9---------9-7-9--|--------------------------]
[-----------------7--------------|--------------------------]
[--------------------------------|--------------------------]
[--------------------------------|--------------------------]


[---p----------------------------|-----------]
[--8-7---------h------8-7--p-h---|--br-------]
[------9-7-9--7-9---------9-7-9--|--2--0--2--]
[-----------------7--------------|-----------]
[--------------------------------|-----------]
[--------------------------------|-----------]

                                              P
[---p----------------------------|--s--12---15-14-12---b-r--]
[--8-7---------h------8-7--p-h---|--\12--12----------15-----]
[------9-7-9--7-9---------9-7-9--|--------------------------]
[-----------------7--------------|--------------------------]
[--------------------------------|--------------------------]
[--------------------------------|--------------------------]


[---p---------------------------------------|-------------------------------]
[--8-7---------h------8-7--p--------s-------|--7------9--10--12-------------]
[------9-7-9--7-9---------9-7-10--10\12-12--|--7------9--10--12-------------]
[-----------------7-------------------------|--7------9--10--12----SCRATCH--]
[-------------------------------------------|--5--5---7--8---10---X-X---X-X-]
[-------------------------------------------|-------------------------------]


03:12
[-----------------------|----------|-------------------------]
[-----------------------|----------|-------------------------]
[----------7-9-9-10-7---|--9-10-7--|--10-9-7----7-9----------]
[--10-------------------|----------|---------10-----10---X2--]
[-----------------------|----------|-------------------------]
[-----------------------|----------|-------------------------]


03:38
[-------------|------------h-p-------]
[-------------|-----------3-6-3------]
[-------------|--3-5-7--6--------X2--]
[--8-7-5--3-5-|----------------------]
[-------------|----------------------]
[-------------|----------------------]


[----------------------|-------------------------]
[-------------7-7-8----|----------8-7-------7----]
[--7--7-7---9-------9--|--7--7-7------9-7-9---7--]
[----------------------|-------------------------]
[----------------------|-------------------------]
[----------------------|-------------------------]


04:06
[-----------------|-----------------|-----------------------------------]
[-----------------|-----------------|-----------------------------------]
[---------7-9-10--|---------7-9-10--|-----------------------7-7-7-9-10--]
[--7-9-10---------|--7-9-10---------|--7-7-7-9-9-9-10-10-10-------------]
[-----------------|-----------------|-----------------------------------]
[-----------------|-----------------|-----------------------------------]


05:04
[---b--------------p-s-------------------------------------]
[--7--------h--8--9-8\7-----------8--7-8---8-7-8-10---8-7--]
[-----9--7-7-9------------7-----7--------------------------]
[---------------------------9------------------------------]
[----------------------------------------------------------]
[----------------------------------------------------------]

[------------------p-s-------------------------------------]
[-----------h--8--9-8\7-----------8--7-8---8-7-8-10--------]
[-----9--7-7-9------------7-----7--------------------------]
[---------------------------9------------------------------]
[----------------------------------------------------------]
[----------------------------------------------------------]

05:36
[-----------|------p--h----|--10-----------|------------]
[--8-10-12--|-13-12-10-12--|-----13-12-10--|--12-13-12--]
[-----------|--------------|---------------|------------]
[-----------|--------------|---------------|------------]
[-----------|--------------|---------------|------------]
[-----------|--------------|---------------|------------]


[---b---p-----------|---p-----------|---p-------------------------]
[--10--8-7----------|--8-7----------|--8-7----------b~~~---p-h----]
[----------9-7-9----|------9-7-9----|------9-7-9-7--9-----9-7-9---]
[----------------9--|------------9--|-----------------------------]
[-------------------|---------------|-----------------------------]
[-------------------|---------------|-----------------------------]

05:53
[-----------p-s-------------------------------------]
[---h---8--9-8\7-----------8--7-8---8-7-8-10---8-7--]
[--7-9-------------7-----7--------------------------]
[--------------------9------------------------------]
[---------------------------------------------------]
[---------------------------------------------------]

[------------------p-s-------------------------------------]
[-----------h--8--9-8\7-----------8--7-8---8-7-8-10--------]
[-----9--7-7-9------------7-----7--------------------------]
[---------------------------9------------------------------]
[----------------------------------------------------------]
[----------------------------------------------------------]


06:19
[----12-----b~~~--brp----b--b--|--brp-----------p-----------------]
[-12----12-15----15--12-15-15--|-15--12---b---13-12---b-----rb----]
[------------------------------|--------14----------14-----14-12--]
[------------------------------|-------------------slow-----------]
[------------------------------|-------------------bend-----------]
[------------------------------|----------------------------------]

[-----12-----12-----12-----12-|----12--12--12--12-------]
[---b------b------b-----b-----|---b---b---b---b------s--]
[--14-----14----14----14------|--14--14--14--14---16-\--]
[-----------------------------|-------------------------]
[-----------------------------|------FASTER-------------]
[-----------------------------|-------------------------]

06:34
[---------------p-s-------------------------------------]
[--------h--8--9-8\7-----------8--7-8---8-7-8-10---8-7--]
[--9--7-7-9------------7-----7--------------------------]
[------------------------9------------------------------]
[-------------------------------------------------------]
[-------------------------------------------------------]

[------------------p-s-----------------------------------------------------]
[-----------h--8--9-8\7-----------8--7-8---8-7-8-10--10-10-10-10-10-10-10--]
[-----9--7-7-9------------7-----7------------------------------------------]
[---------------------------9----------------------------------------------]
[--------------------------------------------------------------------------]
[--------------------------------------------------------------------------]


07:17
    b r
[--15------b--b---p----b--b-|--brp-------|---p----------------]
[---------15-15-15-12-15-15-|-15--12---b-|-13-12---b----rb----]
[---------------------------|--------14--|-------14----14-12--]
[---------------------------|------------|------slow----------]
[---------------------------|------------|------bend----------]
[---------------------------|------------|--------------------]

[-----12-----12-----12--|----12--12--12--12---------------------------]
[---b------b------b-----|---b---b---b---b----b----p-----p-------------]
[--14-----14----14------|--14--14--14--14---14--14-12-14-12---p-------]
[-----------------------|-----------------------------------14-12-14--]
[-----------------------|------FASTER---------------------------------]
[-----------------------|---------------------------------------------]


07:36                                           b  b  b  b  b b b  b  b
[---------|-----15-14-12-14--|--12-14----s--|--17-17-17-17-171717-17-17--]
[---------|--12--------------|--------12-\--|----------------------------]
[---------|------------------|--------------|----------------------------]
[--12-14--|------------------|--------------|----------------------------]
[---------|------------------|--------------|----------------------------]
[---------|------------------|--------------|----------------------------]

         start bending up and hitting string      b r
[--15-17-17-17-17-hold bend---17-15----15-----|--17---17-15------p---------]
[-----------------------------------17----17--|-------------19-19-15----s--]
[---------------------------------------------|----------------------16-\--]
[---------------------------------------------|----------------------------]
[---------------------------------------------|----------------------------]
[---------------------------------------------|----------------------------]

07:56
[-----------15-------------|------------15-----------|----------------s--]
[--s---17------19-17----s--|--s---17-19-----19-17-15-|-17-17-17-17-17-\--]
[--\-16--16----------16-\--|--\-16-------------------|-------------------]
[--------------------------|-------------------------|-------------------]
[--------------------------|-------------------------|-------------------]
[--------------------------|-------------------------|-------------------]

08:03                                                    
[------b---rb-----b--|--b----------------------------]
[--15-15--15--12-15--|--15--15-13-12-13-12-----b-----]
[--------------------|---------------------14-14-----]
[--------------------|-----------------------whammy--]
[--------------------|-------------------------------]
[--------------------|-------------------------------]


08:11
    b  b  b  b  b b b  b  b          start bending up and hitting string
[--17-17-17-17-171717-17-17--|-15-17-17-17-17-hold bend---17-15----15-------]
[----------------------------|----------------------------------17----17----]
[----------------------------|----------------------------------------------]
[----------------------------|----------------------------------------------]
[----------------------------|----------------------------------------------]
[----------------------------|----------------------------------------------]

    b  b  b
[--17-17-17--17-15-------|-------------|-----------------15------------]
[------------------19-19-|-19-15----s--|-----s------17------19-17---s--]
[------------------------|-------16-\--|--12-\-16-16--16----------16\--]
[------------------------|-------------|-------------------------------]
[------------------------|-------------|-------------------------------]
[------------------------|-------------|-------------------------------]

                            
[--------------15-----------|---b--b--b-r--|---------------|----------]
[-----s---17------19-17-15--|--15-15-15----|---------------|-FINISH---]
[--12-\-16--16--------------|--------------|--11-12--------|--WITH----]
[---------------------------|--------------|--------12-10--|-FEEDBACK-]
[---------------------------|--------------|---------------|----------]
[---------------------------|--------------|---------------|----------]


Tap to rate this tab
 
# A B C D E F G H I J K L M N O P Q R S T U V W X Y Z