Song name
# A B C D E F G H I J K L M N O P Q R S T U V W X Y Z

Of Mice And Men - My Understandings tab

Tabbed by: ADTRisyummy

Hey everyone, this is my first tab, nobody really got this song down right, so here is 
my take on it. Hope you enjoy

This song is in Drop C (CGCFAD)


D------------12*-----------------------|
A------------12*-----------------------|
F------------------ <--- repeat this 1-|2x
C--------------------------------------|
G--------------------------------------|
C--------------------------------------|


D---------------------------------------------------------------------|
A---------------------------------------------------------------------|
F------------0--------------------------------------------------------|
C---------4-----4-------------------12--------12/15-------------------|
G-----2--------------------------10----10-----10/13-------------------|
C--2-------------------------10---------------10/13-------------------|
                 slide here             slide here

D----------------------------------------------------------------------|
A----------------------------------------------------------------------|
F---------------0------------------------------------------------------|
C------------7-----7-----------9---------------------------------------|
G---------5-----------------7-----7------------------------------------|
C------5-----------------7------------------4----2---------------------|
                      repeat the above untill singing starts

D-----------------------------------------------------------------------|
A-----------------------------------------------------------------------|
F-----------------------------------------------------------------------|
C------4-------12--------7------9-----6---------------------------------|
G------2-------10--------5------7-----4---------------------------------|
C------2-------10--------5------7-----4---------------------------------|
      x8       x8        x8     x4    x4
                    above are the chords while singing
                 (listen to the song for strumming pattern)
         note: the above chords are the same distorted chords in the chorus
Tap to rate this tab
 
# A B C D E F G H I J K L M N O P Q R S T U V W X Y Z