Song name
# A B C D E F G H I J K L M N O P Q R S T U V W X Y Z

Offspring - Half-truism tab

Help us improve GuitareTab! Take a short survey!
Song:Half-Truism
Album:Rise and Fall, Rage and Grace
Artist:The Offspring
Date Tabbed:May,2008
Guitar Tabber:Ryan Manongdo/18/Vancouver,Ca
              rhyezkie@gmail.com(gtalk)
              no_falter0x@yahoo.com(YM,friendster,facebook&myspace)

For any comments,questions or suggestions,just post a comment or PM me.Pilipino Rules!!

Gtr.Legends:

/ - slide
x - scratching
~ - let it ring

Gtr.Tuning:Standard(Normal Tuning)

Intro:
e|---------------12------------------12-------------------12-----------------12-------------------13---------------13------|
B|---------12-------12----------12------12----------12-------13--------12-------13----------12-------14-------12------14---|
G|------12----12-------------12---12-------------12----12-----------12----12-------------12----12-----------12--12---------|
D|-14~------------------14~-----------------14~-----------------14~-----------------12~-----------------12~----------------|
A|-------------------------------------------------------------------------------------------------------------------------|
E|-------------------------------------------------------------------------------------------------------------------------|

e|-----------------------------|
B|-----------------------------|
G|-----------------------------|
D|----9----9-7------9----9-7---|
A|-xx-7-xx-7-5---xx-7-xx-7-5---|
E|-xx---xx-------xx---xx-------|

Verse 1:One is for...
e|-----------------------------|
B|-----------------------------|
G|-99999-55555--------777777---| 2x
D|-99999-55555-555555-777777---|
A|-77777-33333-555555-555555---|
E|-------------333333----------|

Chorus:Anyway...
Gtr.1
e|-------------------------------|
B|-------------------------------|
G|-------77777-999-777-555-777---| 2x
D|-55555-77777-999-777-555-777---|
A|-55555-55555-777-555-333-555---|
E|-33333-------------------------|

Gtr.2
e|----------------------------------------------------|
B|---------------------------------------7/8-7--------|
G|-------77777---12-------9-7-----9-7----------7------| 2x
D|-55555-77777-9----9-7-7-----7-5-----5----------7----|
A|-55555-55555----------------------------------------|
E|-33333----------------------------------------------|

Verse 2:Whenever you make me...
Play Verse 1

Repeat Chorus:

Bridge prt.1:
Gtr.1
e|-0~---0~---3~---0~---|
B|-0~---1~---3~---3~---|
G|-1~---0~---0~---2~---| 2x
D|-2~---2~---0~---2~---|
A|-2~---3~---2~---0~---|
E|-0~---0~---3~--------|

Gtr.2
e|-------------------------------------------------------------------------------------
B|------12----------12-----------13-----------13----------12---------12---------12-----
G|----12--12-----12----12-----12----12-----12----12----12----12---12---12----12----12--
D|-14~-------14~----------10~----------10~----------9~----------9~--------9~-----------
A|-------------------------------------------------------------------------------------
E|-------------------------------------------------------------------------------------

-----------------------------------------------------------------------------------------------------------
------------------10---10---------------12-----------12------------13----------13------------------12------
----11----11----11--11----11---------12----12-----12----12------12----12----12---12---11/12-12~-------12---
-------------------------------14-12----------14~-----------10~----------10---------9-----------9~---------
-12----12----12--------------------------------------------------------------------------------------------
-----------------------------------------------------------------------------------------------------------

----------------------------------|
--------------10~---------10------|
-----11----11----------11----11---|
----------------------------------|
-12~----12~---------12~-----------|
----------------------------------|

Bridge prt.2:Living and waiting...
Gtr.1
e|---------------------------------|
B|---------------------------------|
G|-99999-55555--------7777777777---| 
D|-99999-55555-555555-7777777777---|
A|-77777-33333-555555-5555555555---|
E|-------------333333--------------|

Gtr.2
e|-----------------------------------------------------------------------------------------------------------------|
B|-----------------------------------------------------------------------------------------------------------------|
G|-99999-7---99999-7/999--12/14-12---12121212-14141414-16161616-171717--77-99-1111-1212-1414-1616-1717-1919-2020---|
D|-xxxxx-x---xxxxx-x-xxx--xx-xx-xx---xxxxxxxx-xxxxxxxx-xxxxxxxx-xxxxxx--xx-xx--x-x-xxxx-xxxx-xxxx-xxxx-xxxx-xxxx---|
A|-77777-5---77777-5/777--10/12-10---10101010-12121212-14141414-151515--55-77--9-9-1010-1212-1414-1515-1717-1818---|
E|-----------------------------------------------------------------------------------------------------------------|

Repeat Chorus:

Outro:
e|----------------------------------------|
B|----------------------------------------|
G|-99------77-------555--777--------------|
D|-99------77-------555--777--5555-55-5---|
A|-77-xx---55--xx---333--555--5555-55-5---|
e|----xx-------xx-------------3333-33-3---|
    ..      ..                      .. .    
 

End...


Half-Truity Lyrics:

Verse 1:
One is for envy and one just for spite
The country in my heart, they show me new lies
Donīt make it better
Twisting knives through somebodyīs ?help?
On to someone else
Something weīre wishing will leave this behind
The answer is there, they need a new lie
Donīt make it better
Checking out can never ??

Chorus:
Anyway,
If we donīt make it alive
Itīs a hell of a good day to die
Our lives it takes up
Only lasts for so long
And itīs ashes to ashes again
Should you (we?) even try to pretend
(all?)Our lives it takes up
Only lasts for so long

Verse 2:
Whenever you wake me thereīs burn in the way?
Like it is alright to try to go ahead
If it gets the world
Try to see towns ?? ??
Watch the scene revert
Open my eyes
Will (Weīll) leave this behind
?? to get out
?? getting on our lives ??
Donīt make it better
When you canīt see ??

Whoooooooooooooooooooooooooooooooooooa

Bridge:
Living and waiting
???
If it gets the way
??? ??? ??? donīt matter
Matter
Matter

Anyway,
If we donīt make it alive
Itīs a hell of a good day to die
Our lives it takes up
Only lasts for so long
And itīs ashes to ashes again
Should you (we?) even try to pretend
(all?)Our lives it takes up
Only lasts for so long


Related for Half-truism tab