Song name
# A B C D E F G H I J K L M N O P Q R S T U V W X Y Z

Offspring - Want You Bad tab

Intro 
--------------------------------------------------------------------------------------
--------------------------------------------------------------------------------------
---55----------6-4-----------------------------------------------------------------
---55-99-77-6-4---------(7)xxxxxxxxxxxxxx--------------------------------
---77-99-77-4-2---------(7)xxxxxxxxxxxxxx--------------------------------
------- 77-55--------------(5)xxxxxxxxxxxxxx--------------------------------
  
Verse 
-------------------------------------------------------------------------------------
-------------------------------------------------------------------------------------
-9xxxxxxx--7xxxxxxx--5xxxxxxx--55-33-22-33--------------------------
-9xxxxxxx--7xxxxxxx--5xxxxxxx--55-33-22-33--------------------------
-7xxxxxxx--5xxxxxxx--3xxxxxxx--33-11-00-11--------------------------
------------------------------------------------------------------------------------- 
  
Verse (pt.2) I'm not sure 
--------------------------------------------------------------------------------------- 
--------------------------------------------------------------------------------------- 
-----------------7777-5555------------------7777-5xxxx---------------------
-----------------7777-5555------------------7777-5xxxx---------------------
-----------------5555-3333------------------5555-3xxxx---------------------
-3333-5555------------------3333-5555-------------------------------------
  
Chorus 
--------------------------------------------------------------------------------------- 
-------------------------------------------------------------------------------second time play this at end 
-1010101010101010--77777777--55555555--33-22-33-5---xx3xx3xx3xx3- 
-1010101010101010--77777777--55555555--33-22-33-5---xx3xx3xx3xx3--
- 8- 8- 8- 8- 8-8- 8-8---55555555--33333333--11-00-11-3---xx1xx1xx1xx1---- 
------------------------------------------------------------------------------------- 
  
Guitar Solo Thing 
-----------------------------------------------------------------------------------
-----------------------------------------------------------------------------------
-----------------------------------------------------------------------------------
----------------------------------------------------------------------------------- 
-------------------------------------------------------------------------------------------------keep sliding up 
-5555555555-3333333333-77777-88888-77777-555555-33333-55555-77777......
Tap to rate this tab
 
# A B C D E F G H I J K L M N O P Q R S T U V W X Y Z