Song name
# A B C D E F G H I J K L M N O P Q R S T U V W X Y Z

Offspring - Want You Bad tab

Group: The Offspring
Album: Conspiracy Of One
Title: Want You Bad

intro / bridge 1 / outro
|-----------------------|
|-----------------------|
|-9-9-9-----------6-6-4-|
|-9-9-9-9-9-9-7-7-6-6-4-|
|-7-7-7-9-9-9-7-7-4-4-2-|
|-------7-7-7-5-5-------|
post intro / post chorus
|---------------------------|
|---------------------------|
|-9-9-9-9-9-9-9-9-9-9-9-9-9-|
|-9-9-9-9-9-9-9-9-9-9-9-9-9-|
|-7-7-7-7-7-7-7-7-7-7-7-7-7-|
|---------------------------|
verse 
|----------------------------------------------------------------------------------------|
|----------------------------------------------------------------------------------------|
|-9-9-9-9-9-9-9-9-9-9-9-9-9\6-6-6-6-6-6-6-6-6-6-6-6-6\4-4-4-4-4-4-4-4-4-4-4-4-4----------|
|-9-9-9-9-9-9-9-9-9-9-9-9-9\6-6-6-6-6-6-6-6-6-6-6-6-6\4-4-4-4-4-4-4-4-4-4-4-4-4--7-6-7-9-|
|-7-7-7-7-7-7-7-7-7-7-7-7-7\4-4-4-4-4-4-4-4-4-4-4-4-4\2-2-2-2-2-2-2-2-2-2-2-2-2--7-6-7-9-|
|--------------------------------------------------------------------------------5-4-5-7-|
pre chorus
|-------------------------------------------------------------------------------|
|-------------------------------------------------------------------------------|
|---------------------6-6-6-6-6-9-9-9-9-9---------------------6-6-6-6-6-4-x-x-x-|
|-7-7-7-7-7-9-9-9-9-9-6-6-6-6-6-9-9-9-9-9-7-7-7-7-7-9-9-9-9-9-6-6-6-6-6-4-x-x-x-|
|-7-7-7-7-7-9-9-9-9-9-4-4-4-4-4-7-7-7-7-7-7-7-7-7-7-9-9-9-9-9-4-4-4-4-4-2-x-x-x-|
|-5-5-5-5-5-7-7-7-7-7---------------------5-5-5-5-5-7-7-7-7-7-------------------|
chorus
|-------------------------------------------------------------------------
|-------------------------------------------------------------------------
|-9-9-9-9-9-9-9-9-9-9-9-9-6-6-6-6-6-6-6-6-6-6-6-6-4-4-4-4-4-4-4-4-4-4-4-4-
|-9-9-9-9-9-9-9-9-9-9-9-9-6-6-6-6-6-6-6-6-6-6-6-6-4-4-4-4-4-4-4-4-4-4-4-4-
|-7-7-7-7-7-7-7-7-7-7-7-7-4-4-4-4-4-4-4-4-4-4-4-4-2-2-2-2-2-2-2-2-2-2-2-2-
|-------------------------------------------------------------------------

-------------------------|
-------------------------|
-------------------------|
-7-7-7-6-6-6-7-7-7-9-9-9-| 
-7-7-7-6-6-6-7-7-7-9-9-9-|
-5-5-5-4-4-4-5-5-5-7-7-7-|
bridge 2 
|------7hr---------7hr-----------------------------------------|
|-----------7hr------------------------------------------------|
|-4:-------------------4:--------9:---4:---4:--------9:---4:---|
|-4:-------------------4:---7:---9:---4:---4:---7:---9:---4:---|
|-2:-------------------2:---7:---7:---2:---2:---7:---7:---2:---|
|---------------------------5:------------------5:-------------|
riff
|---------------------------------------------------------------------------------
|---------------------------------------------------------------------------------
|---------------------------------------------------------------------------------
|---------------------------------------------------2-2-2-2-2-1-1-1-1-1-1-1-1-1-1-
|-6-6-6-6-6-6-6-6-6-6-4-4-4-4-4-4-4-4-4-4-2-2-2-2-2-------------------------------
|---------------------------------------------------------------------------------

-------------------------------------------------------------|
-------------------------------------------------------------|
-------------------------------------------------------------|
---------------------2-2-2-2-2-4-4-4-4-4-6-6-6-6-6-9-9-9-9-9-|
-4-4-4-4-4-4-4-4-4-4-----------------------------------------|
-------------------------------------------------------------|

Intro X4
Post Intro
Verse X2
Pre Chorus
Chorus X2
Verse X2
Pre Chorus
Choruas X2
Bridge 1
Bridge 2
Riff
Chorus X3
Outro
Tap to rate this tab
# A B C D E F G H I J K L M N O P Q R S T U V W X Y Z