Song name
# A B C D E F G H I J K L M N O P Q R S T U V W X Y Z

Offspring - Not The One tab

Song: Not the One
Artist: The Offspring
Album: Smash
As tabbed by Joe Muggah
joe_the_man3@hotmail.com

Riff A (Guitar 1)
e----------------------------------------------------------
B----------------------------------------------------------
G----------------------------------------------------------
D----------------------------------------------------------
A--3-3-3-3-3-3-3-3-3--5-5-5-5-5-5--0-0-0-0-0-0-0-0-0-------
E----------------------------------------------------------

Riff B (Guitar 2)
e----------------------------------------------------------
B----------------------------------------------------------
G--5-5-5-5--7-7--------------------------------------------
D--5-5-5-5--7-7--7-7-7-7-7-7-7-7---------------------------
A--3-3-3-3--5-5--7-7-7-7-7-7-7-7---------------------------
E----------------5-5-5-5-5-5-5-5---------------------------

Verse (palm muted)
e----------------------------------------------------------
B----------------------------------------------------------
G--5-5-5-5-5-5-5--7----------------------------------------
D--5-5-5-5-5-5-5--7--7-7-7-7-7-7-7-7-----------------------
A--3-3-3-3-3-3-3--5--7-7-7-7-7-7-7-7-----------------------
E--------------------5-5-5-5-5-5-5-5-----------------------

Chorus A (Guitar 1)
e----------------------------------------------------------
B----------------------------------------------------------
G---------------------------------------------7------------
D--7-7-7-7--9--10-10-10-10-10-10-10-10-10-10--7--7-7-7-7-7-
A--7-7-7-7--9--10-10-10-10-10-10-10-10-10-10--5--7-7-7-7-7-
E--5-5-5-5--7---8--8--8--8--8--8--8--8--8--8-----5-5-5-5-5-

Chorus B (Guitar 2)
e----------------------------------------------------------
B----------------------------------------------------------
G-------14------------------------------------7------------
D--7-7--14--9--10-10-10-10-10-10-10-10-10-10--7--7-7-7-7-7-
A--7-7--12--9--10-10-10-10-10-10-10-10-10-10--5--7-7-7-7-7-
E--5-5------7---8--8--8--8--8--8--8--8--8--8-----5-5-5-5-5-

Fill
e----------------------------------------------------------
B----------------------------------------------------------
G----------------------------------------------------------
D--5-5--5--5-5-5--5-5--5--5-5-5----------------------------
A--5-5--5--5-5-5--5-5--5--5-5-5----------------------------
E--3-3--3--3-3-3--3-3--3--3-3-3----------------------------


Riff A
Riff A, B
Verse
Chorus A, B
Riff A, B
Verse, Riff A
Chorus A, B
Riff A, B
Verse, Riff A
Chorus A, B
Fill
Riff A
Break
Riff A, B
Tap to rate this tab
# A B C D E F G H I J K L M N O P Q R S T U V W X Y Z