Song name
# A B C D E F G H I J K L M N O P Q R S T U V W X Y Z

Offspring - Cant Repeat tab

-------------------------------------------------------------------------------
			     Cant Repeat - Offspring
-------------------------------------------------------------------------------
Tabbed by: That_guy
Email: s_alvizures@yahoo.com

Tuning: Standard

| /  slide up
| \  slide down
| h  hammer-on
| p  pull-off
| ~  vibrato
| +  harmonic
| x  Mute note
| *  Palm mute



 Intro
e|--------------------------------------------------------------------------|
B|--10-8-8-----------10-8-8------------13-12-10\8-10----13-12-10\8-10-8-----|
G|---------9-9\7-7/9--------9-9\7-7/9---------------------------------------|
D|--------------------------------------------------------------------------|
A|--------------------------------------------------------------------------|
E|--------------------------------------------------------------------------|

e|--------------------------------------------------------------------------|
B|--10-8-8-----------10-8-8------------13-12-10\8-10---13-12-10\8--10-8-10--|
G|---------9-9\7-7/9--------9-9\7-7/9---------------------------------------|
D|--------------------------------------------------------------------------|
A|--------------------------------------------------------------------------|
E|--------------------------------------------------------------------------|
 

 Verse (x2)
e|-----------------------------------------------------------|
B|-----------------------------------------------------------|
G|--------------------------55-5--55-5--55-5--55-5-----------|
D|--77-7--77-7--77-7--77-7--55-5--55-5--55-5--55-5-----------|
A|--77-7--77-7--77-7--77-7--33-3--33-3--33-3--33-3-----------|
E|--55-5--55-5--55-5--55-5-----------------------------------|
    **    **    **    **    **    **    **    **

e|-----------------------------------------------------------|
B|-----------------------------------------------------------|
G|-----------------------------------------------------------|
D|--33-3--33-3--33-3--33-3--55-5--55-5--55-5--55-5-----------|
A|--33-3--33-3--33-3--33-3--55-5--55-5--55-5--55-5-----------|
E|--11-1--11-1--11-1--11-1--33-3--33-3--33-3--33-3-----------|    
    **    **    **    **    **    **    **    **

 Chorus (x2)
e|--------------------------------------------|
B|--------------------------------------------|
G|-----------55555555-------------------------|
D|--77777777-55555555-33333333-55555555-------|
A|--77777777-33333333-33333333-55555555-------|
E|--55555555----------11111111-33333333-------|
  

Pre-Verse
e|--------------------------------------------------------------------------|
B|--10-8-8-----------10-8-8------------13-12-10\8-10----13-12-10\8-10-8-----|
G|---------9-9\7-7/9--------9-9\7-7/9---------------------------------------|
D|--------------------------------------------------------------------------|
A|--------------------------------------------------------------------------|
E|--------------------------------------------------------------------------|

e|--------------------------------------------------------------------------|
B|--10-8-8-----------10-8-8------------13-12-10\8-10---13-12-10\8--10-8-10--|
G|---------9-9\7-7/9--------9-9\7-7/9---------------------------------------|
D|--------------------------------------------------------------------------|
A|--------------------------------------------------------------------------|
E|--------------------------------------------------------------------------|

Verse (x2)
e|-----------------------------------------------------------|
B|-----------------------------------------------------------|
G|--------------------------55-5--55-5--55-5--55-5-----------|
D|--77-7--77-7--77-7--77-7--55-5--55-5--55-5--55-5-----------|
A|--77-7--77-7--77-7--77-7--33-3--33-3--33-3--33-3-----------|
E|--55-5--55-5--55-5--55-5-----------------------------------|
    **    **    **    **    **    **    **    **

e|-----------------------------------------------------------|
B|-----------------------------------------------------------|
G|-----------------------------------------------------------|
D|--33-3--33-3--33-3--33-3--55-5--55-5--55-5--55-5-----------|
A|--33-3--33-3--33-3--33-3--55-5--55-5--55-5--55-5-----------|
E|--11-1--11-1--11-1--11-1--33-3--33-3--33-3--33-3-----------|    
    **    **    **    **    **    **    **    **


 Chorus (x2)
e|--------------------------------------------|
B|--------------------------------------------|
G|-----------55555555-------------------------|
D|--77777777-55555555-33333333-55555555-------|
A|--77777777-33333333-33333333-55555555-------|
E|--55555555----------11111111-33333333-------|
  
=============================================================================

e|--------------------------------------------------------------------------|
B|--10-8-8-----------10-8-8------------13-12-10\8-10----13-12-10\8-10-8-----|
G|---------9-9\7-7/9--------9-9\7-7/9---------------------------------------|
D|--------------------------------------------------------------------------|
A|--------------------------------------------------------------------------|
E|--------------------------------------------------------------------------|

e|--------------------------------------------------------------------------|
B|--10-8-8-----------10-8-8------------13-12-10\8-10---13-12-10\8--10-8-10--|
G|---------9-9\7-7/9--------9-9\7-7/9---------------------------------------|
D|--------------------------------------------------------------------------|
A|--------------------------------------------------------------------------|
E|--------------------------------------------------------------------------|

=============================================================================

e|-----------------------------------------------------------|
B|-----------------------------------------------------------|
G|--------------------------55-5--55-5--55-5--55-5-----------|
D|--77-7--77-7--77-7--77-7--55-5--55-5--55-5--55-5-----------|
A|--77-7--77-7--77-7--77-7--33-3--33-3--33-3--33-3-----------|
E|--55-5--55-5--55-5--55-5-----------------------------------|
    **    **    **    **    **    **    **    **

e|-----------------------------------------------------------|
B|-----------------------------------------------------------|
G|-----------------------------------------------------------|
D|--33-3--33-3--33-3--33-3--55-5--55-5--55-5--55-5-----------|
A|--33-3--33-3--33-3--33-3--55-5--55-5--55-5--55-5-----------|
E|--11-1--11-1--11-1--11-1--33-3--33-3--33-3--33-3-----------|    
    **    **    **    **    **    **    **    **     
                                                   
"""""""""""""""""""""""""""""""""""""""""""""""""""""""""""""""""""""""""""""

e|------------|-------------------------------------------------------------|
B|-p--s--\----|-------------------------------------------------------------|
G|--i--l--\---|------------5-5----5-----------------------------------------|
D|---c--i--\--|--7-7----7--5-5----5--3-3--3--3--3--5-------7---5------------|
A|----k--d--\-|--7-7----7--3-3----3--3-3--3--3--3--5-------7---5------------|
E|--------e---|--5-5----5------------1-1--1--1--1--3-------5---3------------|

Chorus (x2)
e|--------------------------------------------|
B|--------------------------------------------|
G|-----------55555555-------------------------|
D|--77777777-55555555-33333333-55555555-------|
A|--77777777-33333333-33333333-55555555-------|
E|--55555555----------11111111-33333333-------|
  

e|--------------------------------------------------------------------------|
B|---------------------------------------12------10-----12-10\8-10----------|
G|--------------------------------------------------------------------------|
D|----------------------------------5---------------------------------------|
A|--------------------------------------------------------------------------|
E|-----5-------7----8----10----12-------------------------------------------|

e|--------------------------------------------------------------------------|
B|--------------------------------------------------------------------------|
G|--------------------------------------------------------------------------|
D|----77-7--77-7--77-7--77-7--77-7--77-7-7----------------------------------|
A|----77-7--77-7--77-7--77-7--77-7--77-7-7----------------------------------|
E|----55-5--55-5--55-5--55-5--55-5--55-5-5----------------------------------|
      **    **    **    **    **    **  
Tap to rate this tab
# A B C D E F G H I J K L M N O P Q R S T U V W X Y Z