Song name
# A B C D E F G H I J K L M N O P Q R S T U V W X Y Z

Offspring - Gotta Get Away tab

GOTTA GET AWAY, The Offspring- Album: Smash

# INTRO #   h= harmonic       /= slide

     h----|               h----|      
e--------------------------------------------------------|
B----------8--8--7/5-------------8--8--10/5--------------|
G----7--7--7--7--7/4-------7--7--7--7--7-/4--------------|
D--------------------------------------------------------|
A--------------------------------------------------------|
E--------------------------------------------------------|

# INTRO 2 #  

e------------------------------------------------------------------------------>
B------------------------------------------------------------------------------>
G---------7--7--------7--7--------9--9--------9--9--------12--12--------14--14->
D---------7--7--------7--7--------9--9--------9--9--------12--12--------14--14->
A---------5--5--------5--5--------7--7--------7--7--------10--10--------12--12->
E---0--0--------0--0--------0--0--------0--0--------0--0----------0--0--------->

e----------------------------|
B----------------------------|
G---9----9--10--9--10--9-----|
D---9----9--10--9--10--9-----|
A---7----7--8---7--8---7-----|
E----------------------------|

# VERSE #        m= mute

    m---|       m---|       m---|       m---|      m---|         m---|
e------------------------------------------------------------------------------>
B------------------------------------------------------------------------------>
G---------7--7--------7--7--------9--9--------9--9--------12--12--------14--14->
D---------7--7--------7--7--------9--9--------9--9--------12--12--------14--14->
A---------5--5--------5--5--------7--7--------7--7--------10--10--------12--12->
E---0--0--------0--0--------0--0--------0--0--------0--0----------0--0--------->

e----------------------------|
B----------------------------|
G---9----9--10--9--10--9-----|
D---9----9--10--9--10--9-----|
A---7----7--8---7--8---7-----|
E----------------------------|

# CHORUS #   

e----------------------------------------------------------------|
B----------------------------------------------------------------|
G----9----9------------------12---12--12--12------------------9--|
D----9----9--10--10--10--10--12---12--12--12--12--12--12--12--9--|
A----7----7--10--10--10--10--10---10--10--10--12--12--12--12--7--|
E------------8---8---8---8--------------------10--10--10--10-----|

# CODA # 

e----------|
B----------|
G----------|
A----------|
D-----2----|
A-----2----|
E-----0----|

Play:

INTRO:2x
INTRO 2:2x
VERSE:4x
CHORUS:4x
INTRO 2:2x
VERSE:4x
CHORUS:6x  
INTRO:2x
INTRO 2:2x
CHORUS:8x
CODA:1x
Tap to rate this tab
# A B C D E F G H I J K L M N O P Q R S T U V W X Y Z