Guitaretab - guitar tabs
Song name
# A B C D E F G H I J K L M N O P Q R S T U V W X Y Z

Ojays - For The Love Of Money tab

For The Love Of Money
By: The O'Jays

This is a great song and it is also the theme song to "The Apprentice"

Tuning: DADGBE (just tune the low E down to a D)

Intro:
[ Tab from: http://www.guitaretab.com/o/ojays/56942.html ]
E|----------------------------------|
B|----------------------------------|
G|----------------------------------|
D|------00--------------------------|
A|-----------33-3-3-3-3---1-0-1-3---|
D|--00------------------------------|

Money, Money, Money, Money part:
                    (pause)
E|--------------------------------|
B|-------------------------3---0--|
G|--------------2--2--------------|
D|--4-4-4-4-4-4-------------------|
A|--------------------------------|
E|--------------------------------|
Related for For The Love Of Money tab
Advertisement will be closed in 10 seconds