Song name
# A B C D E F G H I J K L M N O P Q R S T U V W X Y Z

Ok Go - Return tab

Return - Ok Go
Tabbed by Rob Kurtz


  Intro:

   Guitar 1

     D       A        B        G
e-----------------------------------|
B-----------------------------------|
G--7-7-7-7-2-2-2-2-4-4-4-4----------|
D--7-7-7-7-2-2-2-2-4-4-4-4-5-5-5-5--|
A--5-5-5-5-0-0-0-0-2-2-2-2-5-5-5-5--|
E--------------------------3-3-3-3--|

               x2

Keyboard: Translated to guitar

e-----------------------------------|
B-----------------------------------|
G--7-6-7--7-6-7--7-6-7/-9-7-6-7-----|
D-----------------------------------|
A-----------------------------------|
E-----------------------------------|
               x2


  Verse:

Guitar 2: Acoustic

            D            F#              Bm                G
e------------------2-2-2-2-2-2-2-2-----------------3-3-3-3-3-3-3-3--|
B--7-7-7-7-7-7-7-7-2-2-2-2-2-2-2-2-3-3-3-3-3-3-3-3-3-3-3-3-3-3-3-3--|
G--7-7-7-7-7-7-7-7-3-3-3-3-3-3-3-3-4-4-4-4-4-4-4-4-4-4-4-4-4-4-4-4--|
D--7-7-7-7-7-7-7-7-4-4-4-4-4-4-4-4-4-4-4-4-4-4-4-4-5-5-5-5-5-5-5-5--|
A--5-5-5-5-5-5-5-5-4-4-4-4-4-4-4-4-2-2-2-2-2-2-2-2-5-5-5-5-5-5-5-5--|
E------------------2-2-2-2-2-2-2-2-----------------3-3-3-3-3-3-3-3--|


Chorus: Return

Guitar 1

      D        A       B       G
e-----------------------------------|
B-----------------------------------|
G--7-7-7-7-2-2-2-2-4-4-4-4----------|
D--7-7-7-7-2-2-2-2-4-4-4-4-5-5-5-5--|
A--5-5-5-5-0-0-0-0-2-2-2-2-5-5-5-5--|
E--------------------------3-3-3-3--|
           x2

Guitar 2:

           D            A              Bm                G
e--------------------------------------------------3-3-3-3-3-3-3-3--|
B--7-7-7-7-7-7-7-7-2-2-2-2-2-2-2-2-3-3-3-3-3-3-3-3-3-3-3-3-3-3-3-3--|
G--7-7-7-7-7-7-7-7-2-2-2-2-2-2-2-2-4-4-4-4-4-4-4-4-4-4-4-4-4-4-4-4--|
D--7-7-7-7-7-7-7-7-2-2-2-2-2-2-2-2-4-4-4-4-4-4-4-4-5-5-5-5-5-5-5-5--|
A--5-5-5-5-5-5-5-5-0-0-0-0-0-0-0-0-2-2-2-2-2-2-2-2-5-5-5-5-5-5-5-5--|
E--------------------------------------------------3-3-3-3-3-3-3-3--|


Solo: You were supposed to grow old...

Guitar 1:

        D
e-------------------|
B-------------------|
G--7-7-7-7-7-7-7-7--|
D--7-7-7-7-7-7-7-7--|
A--5-5-5-5-5-5-5-5--|
E-------------------|

(Just play D until the "Return" comes in the background,in which you would go back to 
chorus)


Guitar 2: Same as Chorus

(very light and difficult to hear. You can probably leave it out)


Keyboard: Tanslated to guitar


e--5----6------7----6-------------------|
B------------------------5----3---5--7--|
G---------------------------------------|
D---------------------------------------|
A---------------------------------------|
E---------------------------------------|

 Note: (there's alot of distortion on the keyboard)


Other Riff: You hear this in the intro and in various parts of the song

e-----------------|
B--3-3-3-3/-5b-\3-|
G-----------------|
D-----------------|
A-----------------|
E-----------------|

If you have any problem email me at Takeawaysmusic@yahoo.com
Tap to rate this tab
# A B C D E F G H I J K L M N O P Q R S T U V W X Y Z