Song name
# A B C D E F G H I J K L M N O P Q R S T U V W X Y Z

Ok Go - Bye Bye Baby tab

Bye Bye Baby - Ok Go

Intro / Chorus / Verse / Bridge - Guitar 1
e---------------|
b---------------|
g--14-11-14-13--|
d--14-11-15-12--|
a--12-9--12-11--|
e---------------|

Bridge - Guitar 2
e---------------------------------------------------------|
b---------------------------------------------------------|
g------------9---------------------9------------9/6/9/11--|
d--9-12-11-9-----12-11-9---12-11-9----9-12-11-9-----------|
a--------------9---------9--------------------------------|
e---------------------------------------------------------|

e--------------------------|
b--------------------------|
g--------------------------| x2
d--11/7-11/4-11/4-4-3-3-2--|
a--------------------------|
e--------------------------|
Tap to rate this tab
# A B C D E F G H I J K L M N O P Q R S T U V W X Y Z