Song name
# A B C D E F G H I J K L M N O P Q R S T U V W X Y Z

Ola Podrida - Cindy tab

Help us improve GuitareTab! Take a short survey!
Capo 3rd Fret
About 95% correct

e|----------------------|
B|----------------------|
G|---0---0---0---0------|
D|--2-2-2-2-2-2-2-2-----|
A|-3---3---3---2--------|
E|----------------------|
                    x 2


e|---------------------------------------------------------------------------|
B|---------------------------------------------------------------------------|
G|---------------------------------------------------------------------------|
D|---0-2---0-2----0-2----0-2-------------------------------------------------|
A|--2-----2------2------2----------------------------------------------------|
E|-3-----3------2------2-----------------------------------------------------|

Then you just repeat that all the way through the song, 
I tend to hit them as chords as the song gets heavier.

Any problems, email me 
 
Related for Cindy tab