Song name
# A B C D E F G H I J K L M N O P Q R S T U V W X Y Z

Olle Ljungstrom - En Apa Som Liknar Dig tab

Olle Ljungström - En Apa Som Liknar Dig (2000)
Ackord 17/11-2012 av Jon Malmin (jogusmal@hotmail.com)
E-stämning, capo på 2:a bandet.

Varje vers, brygga och refräng har samma gitarrdelar. Här är varje del nedskriven för sig,
och under det låtens text och struktur:

Vers:
e|------------------------------------------------------------------|
B|------------------------------------------------------------------|
G|-----2-----2---------2-----2---------2-----2---------2-----2------|
D|---0-----0-----0---0-----0-----0---0-----0-----0---0-----0-----0--|
A|-4-----4-----4---0-----0-----0------------------------------------|
E|---------------------------------3-----3-----3---3-----3-----3----|

Brygga (spela 2x):                              (2:a gången)
e||-------0--|-------0--|-------0--|-------0--||------------|
B||-----0----|-----0----|-----3----|-----5----||-5--5--5----|
G||*---2-----|---4------|---4------|---6-----*||-6--6--6----|
D||*-4-------|-6--------|-5--------|-7-------*||-7--7--7----|
A||----------|----------|----------|----------||------------|
E||----------|----------|----------|----------||------------|

Refräng:
             Bm        
Jag är dina drömmar 
G                  Em              A
...Jag är den som aldrig säger nej
        G   A              Bm
Jag är apan... som liknar dig
G          F#     Bm     
...Jag är lyxvarianten 
G                   Em                A
...Jag är färgen I filmen om ditt liv
        G   A              Bm
Jag är apan... som liknar dig

Mellanspel:
Bm  A/C#  Em  D/F# G  A  
Bm  A/C#  G/D

Text och struktur:
Den som växer och blir stor, vet exakt var värken bor
Om hon nångång tittat in, in under sitt skinn
Det är du som väljer så var noga med ditt val
Det är ändå du som väljer vem du är

[Refräng]

Om du lärt dig nåt om livet, om du har valt slitstarka skor
Så vet du vad lyckan beror på, men den chansen är sällan så stor
Det är du som väljer så var noga med ditt val
Det är ändå du som väljer vem du är

[Refräng]

[Mellanspel]

[Refräng]
Tap to rate this tab
 
# A B C D E F G H I J K L M N O P Q R S T U V W X Y Z