Omid 16b - Colours tab

Artist: Omid 16B
Song: Colours

-- Capo 6th fret --

Main riff:
e|---0-----3-------5-------5-------|
B|-----1-----1---1---1---1---1---1-|
G|-------0-----0-------0-------0---|
D|---------------------------------|
A|-0-------------------------------|
E|---------------------------------|


Phrase 1 (00:25 ; 00:41 ; 01:11)
e|-3--0-|
B|------|
G|------|
D|------|
A|------|
E|------|


Phrase 2 (00:46 ; 01:01)
e|-------------|
B|-1---1-------|
G|-------0---2-|
D|---------0---|
A|-------------|
E|-------------|


Phrase 3 (01:06)
e|-8-8------------| 
B|-----10-8-6-5---|
G|--------------5-|
D|----------------|
A|----------------|
E|----------------|

That about covers it. Enjoy :)

-tAoavdt!-
Tap to rate this tab
 
# A B C D E F G H I J K L M N O P Q R S T U V W X Y Z