Song name
# A B C D E F G H I J K L M N O P Q R S T U V W X Y Z

One Ok Rock - No Scared tab

e----------9--9--9-----------------|
D----------------------------------|
B-7--7--7---------------10--10--10-|
G----------------------------------|
A----------------------------------|
E----------------------------------|

e-----------------------|
D-----------------------|
B-9--9--9--10--10--9--9-|
G-----------------------|
A-----------------------|
E-----------------------|

e----------9--9--9-----------------|
D----------------------------------|
B-7--7--7---------------10--10--10-|
G----------------------------------|
A----------------------------------|
E----------------------------------|

e-----------------------|
D-----------------------|
B-9--9--9--10--10--7--7-|
G-----------------------|
A-----------------------|
E-----------------------|
Tap to rate this tab
# A B C D E F G H I J K L M N O P Q R S T U V W X Y Z