Guitaretab - guitar tabs
Song name
# A B C D E F G H I J K L M N O P Q R S T U V W X Y Z

One Voice - Always On My Mind tab

One Voice - Always On My Mind

Transcribed by Al 
email: algv3@yahoo.com

Thanks to "kewlest" Janet for the song. I saw it on her profile and got it. 

If it's easier for you, you can play open string on some notes.
You can finger pick it or use a pick...whatever floats your boat.  

4/4 Timing
(Capo on 2nd fret)

 INTRO PLAY 4x 
[ Tab from: http://www.guitaretab.com/o/one-voice/131080.html ]
  1 . 2 . 3 . 4 . |1 . 2 . 3 . 4 . |1 . 2 . 3 . 4 . |1 . 2 . 3 . 4 . |
e|------2---------|------5---------|------3---------|----------------|
B|----3-----3-----|5---5-----5-----|----0-----3-----|------3-------3-|
G|--2---------2---|----------------|--0---------0---|----4-------4---|
D|0-------------0-|----------------|----------------|--5-------5-----|
A|----------------|4-------------4-|2-------------2-|--------0-------|
E|----------------|----------------|----------------|3---------------|


 VERSE 1
    My friends....(Vocal comes in after an 8th rest of fifth measure) 
  1 . 2 . 3 . 4 . |1 . 2 . 3 . 4 . |1 . 2 . 3 . 4 . |1 . 2 . 3 . 4 . |
e|------2---------|------5---------|------3---------|----------------|
B|----3-----3-----|5---5-----5-----|----0-----3-----|------3-------3-|
G|--2---------2---|----------------|--0---------0---|----4-------4---|
D|0-------------0-|----------------|----------------|--5-------5-----|
A|----------------|4-------------4-|2-------------2-|--------0-------|
E|----------------|----------------|----------------|3---------------|

 That's the whole song. It's the same pattern all through out
 If you have any questions or comments, just email me.