Song name
# A B C D E F G H I J K L M N O P Q R S T U V W X Y Z

Oneders - That Thing You Do tab

e|0-0-0-0-------------------0-0-0-0----------------------------------------
B|5-5-5-5-7^(9)-7-5---5-----5-5-5-5-7^(9)-5---5---5-7^(9)-5-7-5-7-7^(9)-5-- 
G|------------------6---6-4-----------------6---6-------------------------6
D|-------------------------------------------------------------------------
A|-------------------------------------------------------------------------
E|-------------------------------------------------------------------------

(note 7^(9) means bend at seventh fret until it soud like 9)

e|-------------------------------------------------------------------------|
B|-5-7^(9)-5---5---5-------------------------------------------------------|
G|-----------6---5----4----------------------------------------------------|
D|-------------------------------------------------------------------------|
A|-------------------------------------------------------------------------|
E|-------------------------------------------------------------------------|

and then go back to verse
Tap to rate this tab
# A B C D E F G H I J K L M N O P Q R S T U V W X Y Z