Song name
# A B C D E F G H I J K L M N O P Q R S T U V W X Y Z

Onerepublic - Marching On tab

OneRepublic - Marchin' On (Acoustic Version)

Tuning:

E - G# (important!) - D - G - B - e

e |------------------------------------|
B |----4---4---4---4---4---4---2---2---|
G |------------------------------------|
D |------------------------------------|
G#|--3---3---3---3---3---3---3---3-----|
E |------------------------------------|


e |------------------------------------|
B |----4---4---4---4---4---4---2---2---|
G |------------------------------------|
D |------------------------------------|
G#|--0---0---0---0---0---0---0---0-----|
E |------------------------------------|


e |------------------------------------|
B |----5---5---5---5---5---5---5---5---|
G |------------------------------------|
D |------------------------------------|
G#|------------------------------------|
E |--0---0---0---0---0---0---0---0-----|

I hope you will enjoy it :)
Tap to rate this tab
 
# A B C D E F G H I J K L M N O P Q R S T U V W X Y Z