Song name
# A B C D E F G H I J K L M N O P Q R S T U V W X Y Z

Operation Ivy - Smiling tab

Band: Operation Ivy
Song: Smiling
Tabbed By: Sean C.

sup I wrote this tab because people suck at tabbing and I

couldn't find one myself so here's a damn near perfect tab of

Smiling by Op Ivy.

Intro:

e-----------      e-----|
b-----------      b-----|
g-----------      g-----|
D--5-5-5-5--      D--5~-|
A--5-5-5-5--      A--5~-|
E--3-3-3-3--  x3  E--3~-|

Verse:

e--x3-x3-x3-x3---------------------------------------|
b--x3-x3-x3-x3-x5-x5-x5-x5-x10-x10-x10-x10-x7-x7-----|x7
g--x4-x4-x4-x4-x5-x5-x5-x5-x10-x10-x10-x10-x7-x7-----|x7
D--x5-x5-x5-x5-x5-x5-x5-x5-x10-x10-x10-x10-x7-x7-----|x7
A--x5-x5-x5-x5-x3-x3-x3-x3-x8 -x8--x8--x8--x5-x5-----|x5
E--x3-x3-x3-x3---------------------------------------| x2

e--x3-x3-----------------------|
b--x3-x3-x5-x5-x10-x10--x7-----|x7
g--x4-x4-x5-x5-x10-x10--x7-----|x7
D--x5-x5-x5-x5-x10-x10--x7-----|x7
A--x5-x5-x3-x3-x8 -x8---x5-----|x5
E--x3-x3-----------------------| x4

Chorus:

e--xx33-xx33-xx33-xx33-xx33-xx33-------------|
b--xx33-xx33-xx33-xx33-xx33-xx33-------------|
g--xx44-xx44-xx44-xx44-xx44-xx44-7-7-7-7-7-5-|
D--xx55-xx55-xx55-xx55-xx55-xx55-7-7-7-7-7-5-|
A--xx55-xx55-xx55-xx55-xx55-xx55-5-5-5-5-5-3-|
E--xx33-xx33-xx35-xx33-xx33-xx33-------------|

Verse

Weirdo Interlude with yelling and random noises:

e-------------------------------------------|
b-------------------------------------------|
g-------------------------------------------|
D--5~---5-5-5~----5-5-5~----5-5-5-5-5-5-5-5-|
A--5~---5-5-5~----5-5-5~----5-5-5-5-5-5-5-5-|
E--3~---3-3-3~----3-3-3~----3-3-3-3-3-3-3-3-|

Repeat Chorus until...

End:
e-----------------------------------------|
b-----------------------------------------|
g--7-7-7-7-7-5-7-7-7-7-7-5-7-7-7-7-7-5----|
D--7-7-7-7-7-5-7-7-7-7-7-5-7-7-7-7-7-5-5~-|
A--5-5-5-5-5-3-5-5-5-5-5-3-5-5-5-5-5-3-5~-|
E--------------------------------------3~-|

Thanks, email me at tsacnaes@aim.com if you find corrections.

Also, support your local ska scene and check out my band, The

Pizza Guys on myspace!
Tap to rate this tab
 
# A B C D E F G H I J K L M N O P Q R S T U V W X Y Z