Song name
# A B C D E F G H I J K L M N O P Q R S T U V W X Y Z

Opeth - Soldier Of Fortune tab

-------------------------------------------------------------------------------
			     Soldier Of Fortune - Opeth
-------------------------------------------------------------------------------
Tabbed by: Jerry Harlaar
Email: jerryharlaar@hotmail.com

Tuning: Standard (Eadgbe)

Intro

e|-------------5-6/10---8h10p8-------------------8---------------------------|
B|-----------8-------------------10h11p10-8-10---8---------------------------|
G|---------7-------------------------------------9---------------------------|
D|---4/5-8---------------------------------------10--------------------------|
A|---------------------------------------------------------------------------|
E|---------------------------------------------------------------------------|
                                                 Upstroke

e|---------------------------------------------------------------------------|
B|---10h11p10p8h10h11p10p8h10h11p10p8---11p10h11p10h11p10h11p10--------------|
G|---------------------------------------------------------------------------|
D|---------------------------------------------------------------------------|
A|--------------------------------------------------------------------5-5----|
E|------------------------------------------------------------------------8--|

(There is no guitar in the first verse, so I just put the chorus after the intro)
Chorus

e|---------------------------------------------------------------------------|
B|------------------------------3--------------------------------------------|
G|----------------------------3---3---------8--------10----------------7-----|
D|-------8--------10--------5-------5-----8---8---10----10-----8-----7---7---|
A|-----8---8---10----10---5-----------5-6-------8------------8---8-5---------|
E|---6-------8----------3----------------------------------6-----------------|
  
    "Now I feel I'm growing older..."

e|---------------------------------------------------------------------------|
B|---------------------------------8---------------------------------3-------|
G|-------------------------------8---8---7-------5-------7---------3---3-----|
D|-------5-------3-------8-----8-------8---7---5---5---7---7-----5-------3---|
A|-----5---5---3---3---8---8-6---------------3-------5---------5-------------|
E|---3-------1-------6---------------------------------------3---------------|
    
    "Like the sound of a windmill goin round..."

Solo
Guitar 1
e|---------------------------------------------------------------------------|
B|-----------3----------------6---------------3---------------6--------------|
G|---------3---3------------6---6-----------3---3-----------6---6------------|
D|-------5-------5--------8-------8-------5-------5-------8-------8----------|
A|-----5-----------5----8-----------8---5-----------5---8-----------8--------|
E|---3----------------6---------------3---------------6----------------------|

e|---------------------------------------------------------------------------|
B|-----------3-----------------8-----------------6---------------3-----------|
G|---------3---3-------------8---8-------------6---8-----------3---3---------|
D|-------5-------5--------10-------10--------8-------8-------5-------5-------|
A|-----5-----------5---10-------------10---8-----------8---5-----------5-----|
E|---3---------------8-------------------6---------------3-------------------|

Solo
Guitar 2
e|---------------------------------------------------------13-13h15~-13h15~--|
B|--------------------------------11-11/13~-11/13~---13/15-------------------|
G|-------10-10/12~-10/12~---10/12--------------------------------------------|
D|---/12---------------------------------------------------------------------|
A|---------------------------------------------------------------------------|
E|---------------------------------------------------------------------------|

e|---------------------13-13h15~-15~-----------------------------------------|
B|---15\11-11h13~---15---------------15\13-11-13h15~---13b15r13-11-11h13~----|
G|---------------------------------------------------------------------------|
D|---------------------------------------------------------------------------|
A|---------------------------------------------------------------------------|
E|---------------------------------------------------------------------------|

e|---------------------------------------------------------------------------|
B|---11-10h11p10-11-10~-11p10p8~---------------------------------------------|
G|---------------------------------------------------------------------------|
D|---------------------------------------------------------------------------|
A|---------------------------------------------------------------------------|
E|---------------------------------------------------------------------------|

Verse

e|------------------------------------------------------------5--------------|
B|-----------3---------------1---------------3--------------6---6------------|
G|---------3---3-----------2---2-----------3---3----------7-------7----------|
D|-------5-------5-------3-------3-------5-------5------7-----------7--------|
A|-----5-----------5---3-----------3---5-----------5--5----------------------|
E|---3---------------1---------------3---------------------------------------|

e|------------------------------------------------------------5--------------|
B|-----------3---------------1---------------3--------------6---6------------|
G|---------3---3-----------2---2-----------3---3----------7-------7----------|
D|-------5-------5-------3-------3-------5-------5------7-----------7--------|
A|-----5-----------5---3-----------3---5-----------5--5----------------------|
E|---3---------------1---------------3---------------------------------------|

Chorus

e|---------------------------------------------------------------------------|
B|------------------------------3--------------------------------------------|
G|----------------------------3---3---------8--------10----------------7-----|
D|-------8--------10--------5-------5-----8---8---10----10-----8-----7---7---|
A|-----8---8---10----10---5-----------5-6-------8------------8---8-5---------|
E|---6-------8----------3----------------------------------6-----------------|
  
    "Now I feel I'm growing older..."

e|---------------------------------------------------------------------------|
B|---------------------------------8---------------------------------3-------|
G|-------------------------------8---8---7-------5-------7---------3---3-----|
D|-------5-------3-------8-----8-------8---7---5---5---7---7-----5-------3---|
A|-----5---5---3---3---8---8-6---------------3-------5---------5-------------|
E|---3-------1-------6---------------------------------------3---------------|
    
    "Like the sound of a windmill goin round..."

Outro


e|---------------------------------------------------------------------------|
B|---------------------------------8---------------------------------3-------|
G|-------------------------------8---8---7-------5-------7---------3---3-----|
D|-------5-------3-------8-----8---------------5---5---7---7-----5-------3---|
A|-----5---5---3---3---8---8-6---------------3-------5---------5-------------|
E|---3-------1-------6---------------------------------------3---------------|

    "I can hear the sound of a windmill goin round..."

e|---3---------------5-------------------------3~----------------------------|
B|---4---------------6-----------------------3-------------------------------|
G|---5---------------7---------------------3---------------------------------|
D|---5---------------7-------------------5-----------------------------------|
A|-------------------------------------5-------------------------------------|
E|-----------------------------------3---------------------------------------|
     Upstroke        Upstroke  

    "I guess I wil always be...A soldier of fortune"



| /  slide up
| \  slide down
| h  hammer-on
| p  pull-off
| ~  vibrato
| +  harmonic
| x  Mute note
===============================================================================
Tap to rate this tab
# A B C D E F G H I J K L M N O P Q R S T U V W X Y Z