Song name
# A B C D E F G H I J K L M N O P Q R S T U V W X Y Z

Oppressed - Work Together tab

----------------------------------------------------------------------------
			     WORK TOGETHER - The Oppressed
----------------------------------------------------------------------------


Intro/Verse/Chorus


e|----------------------------------------------------|
B|----------------------------------------------------|
G|----------------------------------------------------|
D|-2-2--5-5--7-7--9-9-9-------------------------------|
A|-2-2--5-5--7-7--9-9-9-------------------------------|
E|-0-0--3-3--5-5--7-7-7-------------------------------|
    

After Chorus:
e|----------------------------------------------------|
B|----------------------------------------------------|
G|----7-7-7-7-----------7-7-7-7-----------------------|
D|----7-7-7-7--9-9-9-9--7-7-7-7--9-9-9-9--------------|   
A|----5-5-5-5--9-9-9-9--5-5-5-5--9-9-9-9--------------|
E|-------------7-7-7-7-----------7-7-7-7--------------|
    
Bridge
e|----0-------------0---------------------------------|
B|------0-------------0-------------------------------|
G|-1------1-1----1------1-1---------------------------|
D|-2--------2----2--------2---------------------------|
A|-2--------2----2--------2---------------------------|
E|-0--------0----0--------0---------------------------|
  
 
CHORDS:

E G A B


============================================================================
Tap to rate this tab
# A B C D E F G H I J K L M N O P Q R S T U V W X Y Z