Song name
# A B C D E F G H I J K L M N O P Q R S T U V W X Y Z

Opwekking - Tienduizend Redenen Opwekking 733 tab

Dit is de tab van de intro van Tienduizend Redenen van Opwekking. Hij staat in dezelfde 
toonsoort als die op de CD (toonsoort A#), maar in het opwekkingsboekje staat hij in G. 
Zit er een fout in? Zeg het dan even! Veel plezier met spelen :)

     A#           F           C         Dm         A#           F            C         Dm
e ---------------------------------------------------------------------------------------------------|
B ---------11-----10---------------8----10---------------11-----10----------------8----10------------|
G ------10----10-----10----------9---9-----10---------10----10-----10-----10----9---9-----10----10---|
D ---8------------------10----10--------------12----8------------------10----10--------------12------|
A ---------------------------------------------------------------------------------------------------|
E ---------------------------------------------------------------------------------------------------|

     A#           F           C         Dm         A#           F              C
e ---------------------------------------------------------------------------------------------------|
B ---------11-----10----------------8----10---------------11-----10------------8---------------------|
G ------10----10-----10----10-----9---9-----10----10---10----10-----10-----10--9---------------------|
D ---8------------------10----10--------------12-----8------------------10-----10--------------------|
A ---------------------------------------------------------------------------------------------------|
E ---------------------------------------------------------------------------------------------------|
Tap to rate this tab
 
# A B C D E F G H I J K L M N O P Q R S T U V W X Y Z