Song name
# A B C D E F G H I J K L M N O P Q R S T U V W X Y Z

Orange And Lemons - Let Me tab

Highlighted       Show chord diagrams
Okay, what you do with the intro and outro is hold the chord and pick the notes. I'll 
the chords over the notes just in case.

Capo 1st

Intro:
    F#m  D   A       E      F#m    E
e|--------------------------------------0------------------------------------|
B|--2----3-----0-0h2-0---------3h5-3-2--0------------------------------------|
G|---2---2---2----------2-1--2----------1------------------------------------|
D|----4---------------------4-----------2------------------------------------|
A|--------------------------------------2------------------------------------|
E|--------------------------------------0------------------------------------|

F#m        D                 E
Keep your head there on my shoulder
F#m         D              E
Let's just lay here for awhile
F#m    D               E
We can hurry when we're older
F#m         D             E
Girl don't worry about tomorrow
F#m         D           E
That just seems so far away
     F#m                    D                A
Luckily me and you all that we have to do is follow
  E         N.C.
Just follow

(Chorus)
A
Let me be the one who sets your
F#m                             D
Feet up on a road where you've never been
       E
Oh and baby then
        A
You can let me take these arms and wrap you
F#m                         D
Up inside a night that will never end
        E               Intro
I wanna be that man if you let me

Come on baby let me

F#m    D                  E
Baby leave those candles burning
F#m       D            E
Slide on over here to me
F#m                               D                      A
If you run with me girl you know we'll make this world stop turning
       E
Just stop turning

(Chorus)

E          G#m
Ohhhhhhhhh ohhhhhhh

Solo: G#m E B F# C#

B
Let me be the one who sets your
G#m                             E
Feet up on a road where you've never been
     B
Yeah Let me take these arms and wrap you
G#m                          E
Up inside a night that will never end
        F#               Outro
I wanna be that man if you let me

Sweet baby let me

Outro:
    G#m  E   B       F#     G#m    
   F#
e|--------------------------------------2------------------------------------|
B|--4----5-----2-2h4-2---------5h7-5-4--2------------------------------------|
G|---4---4---4----------4-3--4----------3------------------------------------|
D|----6---------------------6-----------4------------------------------------|
A|--------------------------------------4------------------------------------|
E|--------------------------------------2------------------------------------|
Tap to rate this tab
# A B C D E F G H I J K L M N O P Q R S T U V W X Y Z