Orange Juice - Rip It Up tab

tab by barky60

Strumming Pattern: Once you've mastered this its a very easy song to play (I'll try and 
tab it as best as I can)

D = Strum Down
U = Strum Up

Guitar 1:

Main Pattern/Verse

   D   D   D      D   U      D  D  D  D  D  D    D  U  D  U
e|-8---8---8------10--10-----10-10-10-10-10-10---10-10-10-10-----------|
B|-8---8---8------10--10-----12-12-12-12-12-12---12-12-12-10-----------|
G|-9---9---9------11--11-----11-11-11-11-11-11---11-11-11-11-----------|
D|-10--10--10-----12--12-----12-12-12-12-12-12---12-12-12-12-----------|
A|---------------------------------------------------------------------|
E|---------------------------------------------------------------------|

Chorus x 2

   D  D   U D U D D D   D  D   U D U D D D   D  D   U D U D D D   D
e|-5--5---5-5-5-5-7-5---3--3---3-3-3-3-5-3---5--5---5-5-5-5-7-5---3~~~~~~--~~|
B|-5--5---5-5-5-5-5-5---3--3---3-3-3-3-3-3---5--5---5-5-5-5-5-5---3~~ring--~~|
G|-5--5---5-5-5-5-5-5---4--4---4-4-4-4-4-4---5--5---5-5-5-5-5-5---4~~~~~~--~~|
D|-7--7---7-7-7-7-7-7---5--5---5-5-5-5-5-5---7--7---7-7-7-7-7-7---5~~~~~~--~~|
A|-------------------------------------------------------------------------~~|
E|-------------------------------------------------------------------------~~|


Guitar 2:

Every-so-often Guitar 2 will play this quickly

     D  U  D  U  D
e|---14-14-14-14-14--------------------------------|
B|---13-13-13-13-13--------------------------------|
G|---14-14-14-14-14--------------------------------|
D|-------------------------------------------------|
A|-------------------------------------------------|
E|-------------------------------------------------|

Then just before the sax solo it plays this:

e|---10---10---10---10---10---10---10---10-9~~-----|
B|-------------------------------------------------|
G|-7----7----7----7----7----7----7----7------------|
D|-------------------------------------------------|
A|-------------------------------------------------|
E|-------------------------------------------------|
Tap to rate this tab
 
# A B C D E F G H I J K L M N O P Q R S T U V W X Y Z