Song name
# A B C D E F G H I J K L M N O P Q R S T U V W X Y Z

Ord Maren - Perfect tab

nice, clean tab =]
CAPO 7

intro
e-----2-----2------------2-------2--------------------|
B--0----3------5-3-2--0----3---3----------------------|
G--0------4-----------0------4------------------------|
D--0------------------0-------------------------------|
A-----------------------------------------------------|
E-----------------------------------------------------|

verse
e-----2-----2------------2----2-----------------------|
B--0----3------5-3-2--0----3----5-3-2-----------------|
G--0------4-----------0------4------------------------|
D--0------------------0-------------------------------|
A-----------------------------------------------------|
E-----------------------------------------------------|

e-----------------------------------------------------|
B------3---2--------3---2-----------------------------|
G--5-5------2---5-5------2----------------------------|
D--3-3----------3-3-----------------------------------|
A-----------------------------------------------------|
E-----------------------------------------------------|

just those two parts over and over


end by playing the intro again twice



Tap to rate this tab
 
# A B C D E F G H I J K L M N O P Q R S T U V W X Y Z