Song name
# A B C D E F G H I J K L M N O P Q R S T U V W X Y Z

Orgy - Blue Monday tab

                                    ORGY
                                 Blue Monday
                                  Candyass
                          Gordon/Shuck/Hweitt/Derakh

Tuning:Dropped D Half Step Down (Db,Ab,Db,Gb,Bb,Eb)
I tried this in standard tunning but it sound completly off tune so i dropped it and it sounded just like it.

Intro/Verse
|-----------------------------|
|-----------------------------|
|-----------------------------|
|-5-5-5-7---------------------|
|---------5-5-5-7-7--7-7--7-7-|
|-----------------------------|
|(happens later in Intro and isnt in verse)
|-----------------------------|
|-11-------------11-----------|
|-----11--12---------11--9----|
|-----------------------------|
|-----------------------------|
|-----------------------------|

Chorus
|-----------------------------------------------------------------|
|-----------------------------------------------------------------|
|-----------------------------------------------------------------|
|-5-5-5-5-0-0-0-0-2-2-2-2-2-2-2-2-7-7-7-7-0-0-0-0-2-2-2-2-2-2-2-2-|
|-5-5-5-5-0-0-0-0-2-2-2-2-2-2-2-2-7-7-7-7-0-0-0-0-2-2-2-2-2-2-2-2-|
|-5-5-5-5-0-0-0-0-2-2-2-2-2-2-2-2-7-7-7-7-0-0-0-0-2-2-2-2-2-2-2-2-|

1st solo
|-------------------------19-|
|-20-19-17-19----20-19-17----|
|-------------16-------------|
|----------------------------|
|----------------------------|
|----------------------------|

2nd solo
|-------------------------|
|-------------------------|
|-------------------------|
|-----------8-------8-----|
|-6-4---4-6---9-4-6---9-6-|
|-----8-------------------|

thats it
Tap to rate this tab
# A B C D E F G H I J K L M N O P Q R S T U V W X Y Z