Song name
# A B C D E F G H I J K L M N O P Q R S T U V W X Y Z

Orson - Look Around tab

Hi this is my first tab erm, right.

right the chords on piano are E B A, ive played this to the song it sounds 99% correct. 
is also a little riff that i played at the end or each bar.


--0---7---5---|r
--0---7---5---|e
--1---8---6---|p
--2---9---7---|e
--2---9---7---|a
--0---7---5---|t

then its

--------------|
--------------|
----11--------|
--9-----14----|
--------------|
--------------|

there you go, enjoy :)
Tap to rate this tab
# A B C D E F G H I J K L M N O P Q R S T U V W X Y Z