Song name
# A B C D E F G H I J K L M N O P Q R S T U V W X Y Z

Osbourne Ozzy - Crazy Train tab

Ozzy Osbourne Cover
Duh.

Guitar Intro
   PIck Slide down the neck
e  X\---X\---------------------|-------------------------------------------------|
B  X\---X\-------X\-----X\-----|-------------------------------------------------|
G  --------------X\-----X\-----|-------------------------------------------------|
D  ----------------------------|-------------------------------------------------|
A  ----------------------------|----------4-------5-------4-------2--------------|
E  ----------------------------|-----22-------2-------2-------2-------5---4---5--|
                                     mm       m       m       m       m   m   m

e  -----------------|-----------------------------------------------------------|
B  -----------------|-----------------------------------------------------------|
G  -----------------|-----------------------------------------------------------|
D  -----------------|----------------------------------7-------9----------------|
A  2----------------|----------4-------5-------4-------5-------7------(12\)-----|
E  ----5---4---0----|-----22-------2-------2-------2------------------(12\)-----|
       m   m   m          mm       m       m


e  -----------------------------------------------------------------------------------------|
B  --------------5----------------5----------------3----------------------------------------|
G  --------------6----------------4----------------2----------------2------------2----------|
D  --------------7----------------6----------------4----------------2------------2----------|
A  0-----00----------000--------------000---------------000---------0------------0----------|
E  ---------------------------------------------------------------------------3~------------|
   m     mm          mmm              mmm               mmm                   m

e  -------------------------------------------------------------------------------------------|
B  --------------5----------------5----------------3------------------------pp----------------|
G  --------------6----------------4----------------2----------------2------420-----pp---------|
D  --------------7----------------6----------------4----------------2-------------420---------|pp
A  0-----00----------000--------------000---------------000---------0--------------------420--|
E  -------------------------------------------------------------------------------------------|
   m     mm          mmm              mmm               mmm


e  ---------------------------------------------------------------------------------|
B  --------------5----------------5----------------3--------------------------------|
G  --------------6----------------4----------------2----------------2------------2--|
D  --------------7----------------6----------------4----------------2------------2--|
A  0-----00----------000--------------000---------------000---------0------------0--|
E  ---------------------------------------------------------------------------3~----|
   m     mm          mmm              mmm               mmm                   m

e  -------5------------------------------------------------------|
B  -------5---------------------------p--------------------------|
G  ---------------------4------------70-------2------------------|
D  ---------------------2------------70-------2------------------|
A  00------------00------------00--------0----0--------(12\)-----|
E  ----------------------------------------------------(12\)-----|
   mm            mm            mm        m


e  ------------------------------------------------------------------------------------------|
B  ---------------[Slight tremolo bend after playing of both harmonics]----------------------|
G  -----------------------7*----------------------------------------------2------------------|
D  --------------7-----7*-------------------------7-----------------------2------------------|
A  4---4---4-----5------------------4---4---4-----5--------5-5---4---2----0---------2--------|
E  2---0---2------------------------2---0---2-----------7---------------------4--2--0---2--4-|
   m   m   m                        m   m   m           m  m m   m   m

e  --------2-----------------------------------------------------|
B  -----2-------5--2------2--------------------------------------|
G  4^-----------------5------5--4--2-----4--2--------------------|
D  -----------------------------------4--------4--2----------p---|
A  --------------------------------------------------4--2~-0-----|
E  --------------------------------------------------------------|

Sweet.

e  ------------------------------------------------------------------|
B  ------------------------------------------------------------------|
G  ------------------------------------------------------------------|
D  2-----------------------------------------------2-----------------|
A  0-----------2-----------4---4---4---------------0-----------2-----|
E  ----4---2---0---2---4---2---0---2---0---2---4-------4---2---0-----|
       m   m       m   m   m   m   m   m   m   m       m   m   m

e  --------------------------------------------|
B  --------------------------------------------|
G  --------------------------------------------|
D  --------------------------------7-----9-----|
A  --------4---4---4---------------5-----7-----|
E  2---4---2---0---2---0---2---4---------------|
   m   m   m   m   m   m   m   m

Then Main Verse Riff again, followed by:

e  -------------------------------------------------------------------------------------------|
B  ---------------[Slight tremolo bend after playing of both harmonics]-----------------------|
G  -----------------------7*----------------------------------------------2-------------------|
D  --------------7-----7*-------------------------7-----------------------2-------------------|
A  4---4---4-----5------------------4---4---4-----5--------5-5---4---2----0---------2---------|
E  2---0---2------------------------2---0---2-----------7---------------------4--2--0---2--4--|
   m   m   m                        m   m   m           m  m m   m   m

Fill #2
        p          p           p           p
e  ---12-9-------13-10-------14-11-------15-12-------16-13-------17-14--------18-15-----19\-|
B  10---------11----------12----------13----------14----------15-----------16---------------|
G  -----------------------------------------------------------------------------------------|
D  -----------------------------------------------------------------------------------------|
A  -----------------------------------------------------------------------------------------|
E  -----------------------------------------------------------------------------------------|


e  ------------------------------------------------------------------|
B  ------------------------------------------------------------------|
G  ------------------------------------------------------------------|
D  2-----------------------------------------------2-----------------|
A  0-----------2-----------4---4---4---------------0-----------2-----|
E  ----4---2---0---2---4---2---0---2---0---2---4-------4---2---0-----|
       m   m       m   m   m   m   m   m   m   m       m   m   m


e  --------------------------------------------|
B  --------------------------------------------|
G  --------------------------------------------|
D  --------------------------------7-----9-----|
A  --------4---4---4---------------5-----7-----|
E  2---4---2---0---2---0---2---4---------------|
   m   m   m   m   m   m   m   m

e  ---------------------------------------------------------------------------------|
B  ---------------------------------------------------------------------------------|
G  ---------------------------------------------------------------------------------|
D  --------2-2-------------------7-7----9-9---11\-----2-2--------------------7---9--|
A  4-4\----0-0----2-2----4-4\----5-5----7-7----9\-----0-0----2-2----4-4\-----5---7--|
E  2-2\-----------0-0----2-2\--------------------------------0-0----2-2\------------|

Ah the solo. Fuckin a

e  -T--T----p------T--T----p------T--T----p------T--T----p-----|
B  14-14--10-7----14-14--10-7----14-14--10-7----14-14--10-7----|
G  ------------------------------------------------------------|
D  ------------------------------------------------------------|
A  ------------------------------------------------------------|
E  ------------------------------------------------------------|

e  -T--T----p------T--T----p------T--T----p------T--T----p-----|
B  15-15--10-7----15-15--10-7----15-15--10-7----15-15--10-7----|
G  ------------------------------------------------------------|
D  ------------------------------------------------------------|
A  ------------------------------------------------------------|
E  ------------------------------------------------------------|


e  -h--p--h--p--h--p--h--p-h--p-h--p--h--p--h----------------17-16-14-(14)-(14)-16-17-17/19-|
B 10-12-10-12-10-12-10-12-9-11-9-11-10-12-10-12------10----------------17^--17^-------------|
G  ------------------------------------------------9^--9------------------------------------|
D  -----------------------------------------------------------------------------------------|
A  -----------------------------------------------------------------------------------------|
E  -----------------------------------------------------------------------------------------|
Kinda hard to play fast enough for a while

e  16--17--16------16--------------------------------------------|
B  ------------19----19--17--16-------------------17-------------|
G  ------------------------------18--16--14--16^------16^--14----|
D  --------------------------------------------------------------|
A  --------------------------------------------------------------|
E  --------------------------------------------------------------|

    TR  h  p     TR  h  p     TR  h  p     TR  h  p
e  17-14-17-14--17-14-17-14--17-14-17-14--17-14-17-14----|
B  ------------------------------------------------------|
G  ------------------------------------------------------|
D  ------------------------------------------------------|
A  ------------------------------------------------------|
E  ------------------------------------------------------|

    TR  h  p     TR  h  p     TR  h  p     TR  h  p       TR  h  p
e  17-14-17-14--17-14-17-14--17-14-17-14--17-14-17-14----19-14-17-14-|
B  ------------------------------------------------------------------|
G  ------------------------------------------------------------------|
D  ------------------------------------------------------------------|
A  ------------------------------------------------------------------|
E  ------------------------------------------------------------------|

    TR  h  p     TR  h  p     TR  h  p     TR  h  p
e  21-17-21-17--21-17-21-17--21-17-21-17--21-17-21-17----|
B  ------------------------------------------------------|
G  ------------------------------------------------------|
D  ------------------------------------------------------|
A  ------------------------------------------------------|
E  ------------------------------------------------------|

    TR  h  p     TR  h  p     TR  h  p     TR  h  p       TR  h  p
e  21-17-21-17--21-17-21-17--21-17-21-17--21-17-21-17----21-16-19-16-|
B  ------------------------------------------------------------------|
G  ------------------------------------------------------------------|
D  ------------------------------------------------------------------|
A  ------------------------------------------------------------------|
E  ------------------------------------------------------------------|

    TR  h  p     TR  h  p     TR  h  p     TR  h  p
e  19-16-19-16--19-16-19-16--19-16-19-16--19-16-19-16----|
B  ------------------------------------------------------|
G  ------------------------------------------------------|
D  ------------------------------------------------------|
A  ------------------------------------------------------|
E  ------------------------------------------------------|

    TR  h  p     TR  h  p     TR  h  p     TR  h  p
e  19-16-19-16--19-16-19-16--19-16-19-16--19-16-19-16------17---|
B  ------------------------------------------------------17^-17-|
G  -------------------------------------------------------------|
D  -------------------------------------------------------------|
A  -------------------------------------------------------------|
E  -------------------------------------------------------------|

e  -------------------------------------------------------------------|
B  -------------------------------------------------------h-----------|
G  14--13-11---11----p-------11----p-------11----p------11-13~--13/16-|
D  ----------------14-11---------14-11---------14-11------------------|
A  ----------------------14------------14------------14---------------|
E  -------------------------------------------------------------------|


e  -----------------------------------------19^-19^--19~---|
B  --------------------------h-------17-19-----------------|
G  -------------------h----14-16/18------------------------|
D  ---------h-------14-16----------------------------------|
A  --h----12-14/16-----------------------------------------|
E  12-14---------------------------------------------------|

Bitchin solo

e  -------------------------------------------------|
B  -------------------------------------------------|
G  -------------------------------------------------|
D  -------------------------------------------------|
A  ----------4-------5-------4-------2--------------|
E  -----22-------2-------2-------2-------5---4---5--|
        mm       m       m       m       m   m   m


e  -----------------|-----------------------------------------------------------|
B  -----------------|-----------------------------------------------------------|
G  -----------------|-----------------------------------------------------------|
D  -----------------|----------------------------------7-------9----------------|
A  2----------------|----------4-------5-------4-------5-------7------(12\)-----|
E  ----5---4---0----|-----22-------2-------2-------2------------------(12\)-----|
       m   m   m          mm       m       m


e  ------------------------------------------------------------------------------------------|
B  --------------5----------------5----------------3-----------------------------------------|
G  --------------6----------------4----------------2----------------2------------2-----------|
D  --------------7----------------6----------------4----------------2------------2-----------|
A  0-----00----------000--------------000---------------000---------0------------0-----------|
E  ---------------------------------------------------------------------------3~-------------|
   m     mm          mmm              mmm               mmm                   m

e  ------------------------------------------------------------------------------------------|
B  --------------5----------------5----------------3------------------------pp---------------|
G  --------------6----------------4----------------2----------------2------420-----pp--------|
D  --------------7----------------6----------------4----------------2-------------420-----pp-|
A  0-----00----------000--------------000---------------000---------0--------------------420-|
E  ------------------------------------------------------------------------------------------|
   m     mm          mmm              mmm               mmm


e  ---------------------------------------------------------------------------------|
B  --------------5----------------5----------------3--------------------------------|
G  --------------6----------------4----------------2----------------2------------2--|
D  --------------7----------------6----------------4----------------2------------2--|
A  0-----00----------000--------------000---------------000---------0------------0--|
E  ---------------------------------------------------------------------------3~----|
   m     mm          mmm              mmm               mmm                   m

e  ------------------------------------------------------------------------------------------|
B  --------------5----------------5----------------3-----------------------------------------|
G  --------------6----------------4----------------2----------------2------------------------|
D  --------------7----------------6----------------4----------------2------------------------|
A  0-----00----------000--------------000---------------000---------0------------------------|
E  ---------------------------------------------------------------------------3~~~-----------|
   m     mm          mmm              mmm               mmm                   m

e  -------5------------------------------------------------------|
B  -------5---------------------------p--------------------------|
G  ---------------------4------------70-------2------------------|
D  ---------------------2------------70-------2------------------|
A  00------------00------------00--------0----0--------(12\)-----|
E  ----------------------------------------------------(12\)-----|
   mm            mm            mm        m

e  -----------------------------7*-----------------------------------------------------------|
B  --------------------------7*--------------------------------------------------------------|
G  -----------------------7*----------------------------------------------2------------------|
D  --------------7-----7*-------------------------7-----------------------2------------------|
A  4---4---4-----5------------------4---4---4-----5--------5-5---4---2----0---------2--------|
E  2---0---2------------------------2---0---2-----------7---------------------4--2--0---2--4-|
   m   m   m                        m   m   m           m  m m   m   m
I aint sure, so this is rhoads live wan

e  -------14----------------------------------------------------|
B  ----14----17-14----14----------------------------------------|
G  16^-------------17-----17-16-14----16-14---------------------|
D  --------------------------------16-------16-14---------------|
A  ------------------------------------------------16-14~---0---|
E  -------------------------------------------------------------|

e  ------------------------------------------------------------------|
B  ------------------------------------------------------------------|
G  ------------------------------------------------------------------|
D  2-----------------------------------------------2-----------------|
A  0-----------2-----------4---4---4---------------0-----------2-----|
E  ----4---2---0---2---4---2---0---2---0---2---4-------4---2---0-----|
       m   m       m   m   m   m   m   m   m   m       m   m   m


e  --------------------------------------------|
B  --------------------------------------------|
G  --------------------------------------------|
D  --------------------------------7-----9-----|
A  --------4---4---4---------------5-----7-----|
E  2---4---2---0---2---0---2---4---------------|
   m   m   m   m   m   m   m   m
End with this o'er and o'er

e  ----------------------------------------------------------------------|
B  ----------------------------------------------------------------------|
G  ----------------------------------------------------------------------|
D  --------2-2-------------------7-7----9-9---11\-----2-2----------------|
A  4-4\----0-0----2-2----4-4\----5-5----7-7----9\-----0-0----2-2----4-4\-|
E  2-2\-----------0-0----2-2\--------------------------------0-0----2-2\-|
Tap to rate this tab
# A B C D E F G H I J K L M N O P Q R S T U V W X Y Z