Song name
# A B C D E F G H I J K L M N O P Q R S T U V W X Y Z

Osbourne Ozzy - Iron Man/children Of The Grave tab

Help us improve GuitareTab! Take a short survey!
Iron Man/Children of the Grave with Brad Gillis on guitar
            ...From the 1982 Live Album, SPEAK OF THE DEVIL
       ---------------------------------------------------------


Intro: bend behind nut on open E string.

.....C'mon let me hear you shout it out on the count of 3..
1...2....3.....
|-------------------|
|-------------------|
|-----/|------------|
|i2-/--\----(X 4)---| i = index finger
|---/----\----------|
|t0^------\---------| t = thumb

Chorus: Play 7 times
|-------------------------------------------------------------|
|-------------------------------------------------------------|
|-------------------------------------------------------------|
|-------------------------------------------------------------|
|--9-/-12--12/14-14----17\16-17\16-17\12--12-12/14-14---------|
|--7-/-10--10/12-12----15\14-15\14-15\10--10-10/12-12---------|


Riff 1  - 1:35  - Play 3 times
|------------------------------------|
|------------------------------------|
|------------------------------------|
|------------------------------------|
|------5-----------------------------|
|--7-7---7-7-6-5-5-5--0-5-4/5\4/5-6--|
.......Back to Chorus

Riff 2 - Play 3 Times
|-------------|-----------------------------------------------|
|-"Nobody wants him"------------------------------------------|
|-------------|<===========================================x2-|
|--9----7-----|------------------7-8-9----------------7-8-9---|
|--7----5-----|9-9------7-7-8-9------9-9------7-7-8-9---------|
|-------------|7-7-7-10--------------7-7-7-10-----------------|
.......Back to Chorus

Riff 3 - at 3:43
|-------------------------------------------------|--------
|-------------------------------------------------|--------
|11-9-----------------------11-9------------------|--------
|----11-10-9--------------------11-10-9-----------|--4--"C'mon lets go!"
|------------7--------------------------7---------|--2------
|--------------7-7/9-9--------------------7-7/9-9-|--------

CHILDREN OF THE GRAVE SECTION begins


<===============x15
|------------------|----------------|
|-------6-6-6------|----------------|
|-------6-6-6------|---6--9---------|
|--4/6---nat.------|---6--9--7--9---|
|--2/4---harm.-----|---4--7--7--9---|
|------------------|---------5--7---|

<================x3
|------------------|------------| 
|-------6-6-6------|------------|
|-------6-6-6------|------------|
|--4/6---nat.------|--7--6------|
|--2/4---harm.-----|--7--6------|
|------------------|--5--4------|

FILLS
|-9^4^7--11^4^7--12^4^7--11----|
|-T------T-------T-------T-----|
|------------------------------|
|------------------------------|
|------------------------------|
|------------------------------|

5:38
|----------------------|-------------------------------------------|
|----------------------|-------------------------------------------|
|----------------------|-------------------------------------------|
|----------------------|-------------------------------------------|
|----------------------|-------2-4---2-4-------2-4-----------------|
|-6/9--6/9--9/12--9/12-|-2-3-4-----4-----2-3-4-----4--3-2----------|

|--------------------|-------------------|
|--------------------|-------------------|
|--------------------|-------------------|
|---------------2----|-------------------|
|--------2-3------4--|--------2-4--------|
|-2-3-4------4-------|--2-3-4-----4-3-2--|

Solo:
|--9--9------9---9------9--(-9)(-9)---------------------------
|--12^12^----12^-12^----12^(12)(12)12p-9----------------------
|----------------------------------------11^--9--9-11--9-----9-
|--------------------------------------------------------11----
|--------------------------------------------------------------
|--------------------------------------------------------------

|-------9----9-------------------|------------------------------9-
|-----9--12^---12p9--------------|----------------------------9---
|-11^---------------11^-(-9--11)-|--9---9---------------9-11^-----
|--------------------------------|---11--11--9-11--9h1-----------
|--------------------------------|--------------------------------
|--------------------------------|--------------------------------

|-------9----------------------------|-------------------------------------
|-12^------12p9----------------------|-------------------------------------
|---------------11^-11--9-11---9---9-|-------------------------------------
|-------------------------------11---|-11--9-11---9----9-----------------9-
|------------------------------------|-------------11----11--9--7--9/11----
|------------------------------------|-------------------------------------

|----------------9----------------|-----------------------12----
|--------------9--12p9------------|-------12--9-12--9-/14-------
|--------9-11^---------11^9-----9-|-11--9-----------------------
|--9h11----------------------11---|-----------------------------
|---------------------------------|-----------------------------
|---------------------------------|-----------------------------

|-14/15p11--14/15p12--14/15p12--14/15p12-|-14p12----12-----------------------
|----------------------------------------|------14----1412-------------------
|----------------------------------------|----------------13\11-9-11-9-----9-
|----------------------------------------|-----------------------------11----
|----------------------------------------|-----------------------------------
|----------------------------------------|-----------------------------------

|-------9-----9----------------|----------------9------9----------------
|--------12^-----12p9----------|-----------------12^-----12p9-----------
|-11^-----------------11^^--11-|--9-----9-11^------------------11^^p9---
|-------------------------11---|-----11---------------------------------
|------------------------------|----------------------------------------
|------------------------------|----------------------------------------

|-------------------------------|---------------9--------------------
|-------------------------------|-----------------12p9---------------
|-11--9-----9-----------------9-|-11-(9)--11^-----------11p9-----9---
|-------11----11p9-11-9h11------|-----------------------------11-----
|-------------------------------|------------------------------------
|-------------------------------|------------------------------------

|-------------------------------------|-------------------------------
|-------------------------------------|-------------------------------
|-------------------------------------|---------------9---------------
|-11-9--11-9------9-------------------|------9--9h11-----11p9---------
|-------------11----11\9--7-9-7-9/----|-/11---------------------4--1--
|-------------------------------------|-------------------------------

Ending
|---9---9-----11--11---12--12---13--13---13--13\-----------
|---12^-12^---13^-13^--15^-15^--16^-16^--17^---------------
|----------------------------------------------------------
|----------------------------------------------------------
|----------------------------------------------------------
|----------------------------------------------------------
Related for Iron Man/children Of The Grave tab