Song name
# A B C D E F G H I J K L M N O P Q R S T U V W X Y Z

Oscar Hammerstein - Edelweiss tab

Edelweiss as played by Captain Von Trapp in one of
the final scenes of The Sound of Music before the
family escapes the Nazis by fleeing to Switzerland.

capo 2nd fret

e--0-------5-------2-------0---------|
B--2-------2-------3-------0---------|
G--2-------2-------2-------1---------|
D--2-------2-------0-------2---------|
A------------------------------------|
E----0-0-0~--0-0-0~--0-0-0~--0-0-0~--|

   Edelweiss, edelweiss...
e------0-7-0-0-5------------|
B--2-------0-0---5-5-3------|
G----2-----------6-6---2-2--|
D----2---6-------------4-4--|
A--0-----------4------------|
E--------------------2------|

   Every morning you greet me
e----------------2-2---0-0--|
B--2---2---2-2---3-3---0-0--|
G----2-----2-2---------1-1--|
D----2----------------------|
A--------------2------------|
E--0-----2-----------0------|

   Small and white, clean and bright
e------0-7-0-0-5------------|
B--2-------0-0---5-5-3------|
G----2-----------6-6---2-2--|
D----2---6-------------4-4--|
A--0-----------4------------|
E--------------------2------|

   You look happy to meet me
e------0-0-2-4-5-----5------|
B--2-------------5-5---5-5--|
G----2-----------6-6---6-6--|
D----2----------------------|
A--------------0------------|
E--0-----2-----------0------|

   Blossoms of snow may you bloom and grow
e--8-0-0-4-2-0-------5------|
B----0-0---0-0-2-------2-2--|
G----------------2-2---2-2--|
D----------------2-2--------|
A--8-----2-----0------------|
E--------------------0------|

   Bloom and grow forever
e--2---5-7-0-0-4-----0-------|
B----3-----0-0---0-0---------|
G----2-----------1-1---1-1---|
D--0-----------2-------2-2---|
A----------------------------|
E--------0-----------0-------|

   Edelweiss, edelweiss...
e------0-8-0-0-5------------|
B--2-------0-0---5-5-3------|
G----2-----------6-6---2-2--|
D----2---7-------------4-4--|
A--0-----------4------------|
E--------------------2------|

   Bless my homeland forever
e------0-0-2-4-5-----5------|
B--2-------------5-5---5-5--|
G----2-----------6-6---6-6--|
D----2----------------------|
A--------------0------------|
E--0-----2-----------0------|

   {break}
e--2--------0---------|
B--3--------0---------|
G--2--------1---------|
D--0--------2---------|
A---------------------|
E----0-0-0~---0-0-0~--|

Edelweiss, edelweiss
Every morning you greet me
Small and white, clean and bright
You look happy to meet me
Blossom of snow may you bloom and grow
Bloom and grow forever
Edelweiss, edelweiss
Bless my homeland for..

 ..e........ver
e--5--------7--------9--|
B--5--------5--------5--|
G--6--------7--------6--|
D-----------0--------7--|
A-----------0--------0--|
E----0-0-0~---0-0-0~-0--|
Tap to rate this tab
# A B C D E F G H I J K L M N O P Q R S T U V W X Y Z